Cifra Club

Aprenda

Nailed To The Wheel

Edguy

Cifra: Principal (violão e guitarra)
Tom: C
.  - palm mute                          /  - slide up to
  - slide down to                      ~  - vibrato
"  - tremelo picking                    () - ghost note
p  - pull off                           h  - hammer-on 
tr - trill notes                        fb - full bend (1step)
< > - natural harmonic

Edguy - Nailed to the Wheel

Tuned 1/2 step down

Riff A (Acoustic)
|----------------------------------------|
|-------------------0--------------------|
|-------0---------2-0-2-0----------------|Gtr I
|---2-------2---2-4---4-2---0------------|
|-----2-------2---------------2-0--------|
|-0--------------------------------------|
|                                        |
|----------------------------------------|
|-------------------0--------------------|
|-------0---------2-0-2-0----------------|Gtr II
|---2-------2---2-4---4-2---0------------|
|-----2-------2---------------2-0--------|
|-0--------------------------------------|

|----------------------------------------|
|----------------------------------------|
|----------------------------------------|Gtr I
|-------0---------------0-----4-5--------|
|---2-------2---2---0-------0------------|
|-3---3-------3---2---2------------------|
|                                        |
|----------------------------------------|
|----------------------------------------|
|-------0---------------------2-4--------|Gtr II
|---0-------0---0---0---4---0------------|
|-----2-------2-------0------------------|
|-3---------------2----------------------|

Riff A - 6x

Riff B (Acoustic)
|----------------------------------------|
|----------------------------------------|
|---------0---------------2--------------|Gtr I
|---0---4---4---0---2---5---5---2--------|
|-2---2-------2---3---3-------3----------|
|----------------------------------------|
|                                        |
|----------------------------------------|
|----------------------------------------|
|---------4---------------5--------------|Gtr I 
|---4---7---7---4---5---9---9---5--------|
|-5---5-------5---7---7-------7----------|
|----------------------------------------|

Riff B - 3x

Fill
|----------------------------------------|
|----------------------------------------|
|----------------------------------------|Both Gtrs
|-7--------------------------------------|
|-5--------------------------------------|
|----------------------------------------|

|----------------------------------------|
|----------------------------------------|
|----------------------------------------|Both Gtrs
|-7---------------7----------------------|
|-5---------------5----------------------|
|----------------------------------------|

Riff C
|----------------------------------------|
|----------------------------------------|
|----------------------------------------|Both Gtrs
|-----9-----7-----10----7-----9----------|
|-----7-----5-----8-----5-----7----------|
|-0-0---0-0---0-0---0-0---0-0------------|
  . .   . .   . .   . .   . .

|----------------------------------------|
|----------------------------------------|
|----------------------------------------|Both Gtrs
|-----9-----10----12-----10----7---------|
|-----7-----8-----10-----8-----5---------|
|-0-0---0-0---0-0----0-0---0-0-----------|
  . .   . .   . .    . .   . .

|----------------------------------------|
|----------------------------------------|
|----------------------------------------|Both Gtrs
|-----9-----7-----10----7-----9----------|
|-----7-----5-----8-----5-----7----------|
|-0-0---0-0---0-0---0-0---0-0------------|
  . .   . .   . .   . .   . .

|----------------------------------------|
|----------------------------------------|
|----------------------------------------|Both Gtrs
|-5---------------7----------------------|
|-3---------------5----------------------|
|----------------------------------------|

Riff C - 2x

Riff D
|----------------------------------------|
|----------------------------------------|
|----------------------------------------|Both Gtrs
|-----------------4----------------------|
|-5---------------2----------------------|
|-3--------------------------------------|

|----------------------------------------|
|----------------------------------------|
|----------------------------------------|Both Gtrs
|-----------------7----------------------|
|-2---------------5----------------------|
|-0--------------------------------------|

|----------------------------------------|
|----------------------------------------|
|----------------------------------------|Both Gtrs
|-5--------------9-----------------------|
|-3--------------7-----------------------|
|----------------------------------------|

|----------------------------------------|
|----------------------------------------|
|----------------------------------------|Both Gtrs
|-7--------------7---9---7h9p7-5h7-------|
|-5----------------0---0-----------------|
|----------------------------------------|

|----------------------------------------|
|----------------------------------------|
|----------------------------------------|Both Gtrs
|-----------------7----------------------|
|-2---------------5----------------------|
|-0--------------------------------------|

|----------------------------------------|
|----------------------------------------|
|----------------------------------------|Both Gtrs
|-5--------------------------------------|
|-3---------------5----------------------|
|-----------------3----------------------|

|----------------------------------------|
|----------------------------------------|
|-----------------5---4------------------|Both Gtrs
|-5-----------------------5--------------|
|-3-----------3-3-3---2------------------|
|-------------------------3--------------|
              . .

|----------------------------------------|
|----------------------------------------|
|-------------------4-----4---2h4--------|Gtr I
|-4--------------------------------------|
|-2---2-2-222-2-222---2-2---2------------|
|----------------------------------------|
|     . . ... . ...   . .   .            |
|----------------------------------------|
|----------------------------------------|
|----------------------------------------|Gtr II
|-4-----------------5-----5---4h5--------|
|-2---2-2-222-2-222---2-2---2------------|
|----------------------------------------|
      . . ... . ...   . .   .

Riff D - 1x

Riff E
|----------------------------------------|
|----------------------------------------|
|----------------------------------------|Gtr I
|----------------------------------------|
|-3p2-----------------------3---3--------|
|-1p0---0-0-000-0-0-000-0-0-1-0-1-0------|
|       . . ... . . ... . .   .   .      |
|----------------------------------------|
|----------------------------------------|
|----------------------------------------|Gtr II
|----------------------------------------|
|-3p2-----------------------3---3--------|
|-1p0---0-0-000-0-0-000-0-0-1-0-1-0------|
        . . ... . . ... . .   .   .

|----------------------------------------|
|----------------------------------------|
|----------------------------------------|Gtr I
|-------------------------1-2-1----------|
|-3p2---------------3-2-3-------3--------|
|-1p0-0-0-000-0-000----------------------|
|     . . ... . ...                      |
|----------------------------------------|
|----------------------------------------|
|----------------------------------------|Gtr II
|-------------------------4-5-4----------|
|-3p2---------------7-6-7-------7--------|
|-1p0-0-0-000-0-000----------------------|
      . . ... . ...              

|----------------------------------------|
|----------------------------------------|
|----------------------------------------|Gtr I
|----------------------------------------|
|-3p2------------------------------------|
|-1p0---0-0-000-0-0-000-0-0-000-000------|
|       . . ... . . ... . . ... ...      |
|----------------------------------------|
|----------------------------------------|
|----------------------------------------|Gtr II
|----------------------------------------|
|-3p2------------------------------------|
|-1p0---0-0-000-0-0-000-0-0-000-000------|
        . . ... . . ... . . ... ... 

|----------------------------------------|
|----------------------------------------|
|----------------------------------------|Gtr I
|-5-----7--------------------------------|
|-3-----5-----5--------------------------|
|-------------3--------------------------|
|                                        |
|----------------------------------------|
|----------------------------------------|
|----------------------------------------|Gtr II
|-5-----7--------------------------------|
|-3-----5-----5--------------------------|
|-------------3--------------------------|   

Riff E - 2x

Fill 1
|----------------------------------------|
|----------------------------------------|
|----------------------------------------|Gtr I
|-5-----7--------------------------------|
|-3-----5-----5--------------------------|
|-------------3--------------------------|
|                                        |
|----------------------------------------|
|----------------------------------------|
|----------------------------------------|Gtr II
|-9----7------9--------------------------|
|----------------------------------------|
|----------------------------------------|   

Fill 1 - 1x
Riff C - 2x (under solo)

Fill 2
|----------------------------------------|
|----------------------------------------|
|----------------------------------------|Both Gtrs
|----------------------------------------|
|-2-2---2-2---2-2---2-2------------------|
|-0-0---0-0---0-0---0-0------------------|
  . .   . .   . .   . .

Riff C - 2x
Riff D - 1x
Riff E - 2x 
Fill 1 - 1x

Riff F
|----------------------------------------|
|----------------------------------------|
|-------5--------------5-----------------|Both Gtrs
|----------------------------------------|
|-0-----------------2--------------------|
|---------------3h5----------------------|

|----------------------------------------|
|----------------------------------------|
|---------5------------5-----------------|Both Gtrs
|-------------------0--------------------|
|-0h2-3---------2h3----------------------|
|----------------------------------------|

Riff F - 2x

Riff G
|----------------------------------------|
|----------------------------------------|
|----------------------------------------|Both Gtrs
|----------------------------------------|
|-2-----2-----3-----2--------------------|
|-0---0-0---0-1-----0---0-0-0-0----------|
      .     .           . . . .

|----------------------------------------|
|----------------------------------------|
|----------------------------------------|Both Gtrs
|-------------------------7/9-97--------|
|-5-----3-----2---2-------5/7-75--------|
|-3---0-1---0-0---0---0-0----------------|
      .     .         . .

Riff G - 2x
Riff F - 2x
Riff G - 2x

Riff H
|----------------------------------------|
|----------------------------------------|
|----------------------------------------|
|-2---------------4----------------------|
|-0---------------2----------------------|
|----------------------------------------|

|----------------------------------------|
|----------------------------------------|
|----------------------------------------|
|-5---------------7----------------------|
|-3---------------5----------------------|
|----------------------------------------|

Riff H - 4x (under solo)

Riff I
|----------------------------------------|
|----------------------------------------|
|----------------------------------------|Gtr I
|----------------------------------------|
|-3p2---------------------3---3----------|
|-1p0-0-0-000-0-0-000-0-0-1-0-1-0--------|
|     . . ... . . ... . .   .   .        |
|----------------------------------------|
|----------------------------------------|
|----------------------------------------|Gtr II
|----------------------------------------|
|-2--------------------------------------|
|-0--------------------------------------|

|----------------------------------------|
|----------------------------------------|
|----------------------------------------|Gtr I
|----------------------------------------|
|-3p2------------------------------------|
|-1p0-0-0-000-0-0-000-0-0-000-000--------|
|     . . ... . . ... . . ... ...        |
|----------------------------------------|
|----------------------------------------|
|----------------------------------------|Gtr II
|----------------------------------------|
|----------------------------------------|
|----------------------------------------|

|----------------------------------------|
|----------------------------------------|
|----------------------------------------|Gtr I
|----------------------------------------|
|-3p2------------------------------------|
|-1p0-0-0-000-0-0-000-0-0-000-000--------|
|     . . ... . . ... . . ... ...        |
|----------------------------------------|
|----------------------------------------|
|----------------------------------------|Gtr II
|----------------------------------------|
|----------------------------------------|
|----------------------------------------|

|----------------------------------------|
|----------------------------------------|
|----------------------------------------|Gtr I
|-5-----7--------------------------------|
|-3-----5-----5--------------------------|
|-------------3--------------------------|
|                                        |
|----------------------------------------|
|----------------------------------------|
|----------------------------------------|Gtr II
|-5-----7--------------------------------|
|-3-----5-----5--------------------------|
|-------------3--------------------------| 

|----------------------------------------|
|----------------------------------------|
|----------------------------------------|Both Gtrs
|----------------------------------------|
|-3p2---------------------3---3----------|
|-1p0-0-0-000-0-0-000-0-0-1-0-1-0--------|
      . . ... . . ... . .   .   .        

|----------------------------------------|
|----------------------------------------|
|----------------------------------------|Both Gtrs
|-------------------------9-------------|
|-3p2---------------------7-------------|
|-1p0-0-0-000-0-0-000-0-0----------------|
      . . ... . . ... . .       

|----------------------------------------|
|----------------------------------------|
|----------------------------------------|Both Gtrs
|----------------------------------------|
|-3p2------------------------------------|
|-1p0-0-0-000-0-0-000-0-0-0000000--------|
      . . ... . . ... . . .......  

|----------------------------------------|
|----------------------------------------|
|----------------------------------------|Both Gtrs
|-5-----7--------------------------------|
|-3-----5-----5--------------------------|
|-------------3--------------------------|      

Riff I - 1x (under solo)

Fill 3
|----------------------------------------|
|----------------------------------------|
|----------------------------------------|Gtr I
|-5----4----2----------7-----------------|
|-3----2----0----5-----5-----------------|
|----------------3-----------------------|
|                                        |
|----------------------------------------|
|----------------------------------------|
|----------------------------------------|Gtr II
|-2----0---------------4-----------------|
|-----------3----2-----------------------|
|----------------------------------------|

Fill 3 - 1x
Riff E - 4x
Fill 1 - 1x
Fill 2 - 1x
Composição de Jens Ludwig / Tobias Sammet
Colaboração e revisão:
  • Taino Vieira
1.207 exibições
    • ½ Tom
    • A
    • Bb
    • B
    • C
    • Db
    • D
    • Eb
    • E
    • F
    • F#
    • G
    • Ab
  • Adicionar à lista

    0 comentários

    Mostrar mais comentários

    Conseguiu tocar?

    0 Tocaram 0 Ainda não

    Grave um vídeo tocando Nailed To The Wheel e mande pra gente!

    00:00 / 00:00
    outros vídeos desta música
    repetir qualidade Automático
    Outros vídeos desta música
    00:00 / 00:00
    Automático

    Cifra Club Pro

    Aproveite o Cifra Club com benefícios exclusivos e sem anúncios
    Cifra Club Pro
    Aproveite o Cifra Club com benefícios exclusivos e sem anúncios
    OK