Cifra Club

Wild Wild West

The Escape Club

Cifra: Principal (violão e guitarra)
Selo Cifra Club: esta cifra foi revisada para atender aos critérios oficiais da nossa Equipe de Qualidade.
tom: E
G|---------------------|
D|---------------------| D PEATS THROUGH VERSE
A|------------5-6------|
E|-7-7-5-7--7----7-5---|

[Verse]
N.C.
Forty seven dead beats living in the back street

North, east, west, south, all in the same house

Sitting in a back room, waiting for the big boom

I'm in a bedroom waiting for my baby

[Chorus]
E                 B
She's so mean but I don't care
  E                     B
I love her eyes and her wild, wild hair
E                      B
Dance to the beat that we love best
A
Heading for the nineties
A                         B
Living in the wild, wild west
               B
The wild, wild west (wild west)


[Verse]
N.C.
Well, Mandy's in the backroom, handing out Valium

Sheriff's on the airwaves, talking to the D.J.'s

Forty seven heartbeats beating like a drum

Got to live it up, live it up, Ronnie's got a new gun

[Chorus]
E                 B
She's so mean but I don't care
  E                     B
I love her eyes and her wild, wild hair
E                      B
Dance to the beat that we love best
A
Heading for the nineties
A                         B
Living in the wild, wild west
               B
The wild, wild west (wild west) Yeow

 [GUITAR G  O (AND TRUMPETS TRANSCRIBED FOR GUITAR)]

GUITAR                 TRUMPETS
E|-----12----12------|-------------------|
B|-----12----12------|-12-12----12-12----|
G|-\13----13----13---|-------13-------13-|
D|-------------------|-------------------|
A|-------------------|-------------------|
E|-------------------|-------------------|

GUITAR                 TRUMPETS
E|-----12----12------|----------------\12|
B|-----12----12------|-12-12----12-12----|
G|-\13----13----13---|-------13----------|
D|-------------------|-------------------|
A|-------------------|-------------------|
E|-------------------|-------------------|

GUITAR                 TRUMPETS
E|-----12----12------|-------------------|
B|-----12----12------|-12-12----12-12----|
G|-\13----13----13---|-------13-------13-|
D|-------------------|-------------------|
A|-------------------|-------------------|
E|-------------------|-------------------|

GUITAR
E|---------------|---------------|---------------|---------------|---------------|
B|-2-2-----2-----|-2-2-----2-----|-2-2-----2-----|-2-2-----2-----|-2-------------|
G|-2-2-----2-----|-2-2-----2-----|-2-2-----2-----|-2-2-----2-----|-4-------------|
D|-2-2-----2-----|-2-2-----2-----|-2-2-----2-----|-2-2-----2-----|-4-------------|
A|-0-0-3b4-0-----|-0-0-3b4-0-----|-0-0-3b4-0-----|-0-0-3b4-0-----|-2-------------|
E|---------------|---------------|---------------|---------------|---------------|

[Verse]
N.C.
Now put your flags in the air and march them up and down

You can live it up, live it up all over the town

And turn to the left, turn to the right

I don't care as long as she comes tonight

[Chorus]
E                 B
She's so mean but I don't care
  E                     B
I love her eyes and her wild, wild hair
E                      B
Dance to the beat that we love best
A
Heading for the nineties
A                         B
Living in the wild, wild west
               B
The wild, wild west (wild west)
               B
The wild, wild west (wild west)
           B
Yeow, wild west

GUITAR LINE PA YED UNDER THE RAP D PEATED

E|-5\-7--7--7----|-5-5--7-7----------|
B|-5\-7--7--7----|-5-5--7-7----------|
G|-6\-8--8--8----|-6-6--8-8----------|
D|-7\-9--9--9----|-7-7--9-9----------|
A|---------------|-------------------|
E|---------------|-------------------|

[RAP]
N.C.
Brrrr, here come a musical disc

'Cause some people them a-keep waitin' for

This one's called the outlaw, wow

They want me

Ride the rhythm like me ridin' a bike

Shine on me

Murder me chatter when me chat on the mic

Shorties thought this could keep them rockin' 'til the broad daylight

And here comes the Escape Club to rock it all night, say

Live it up, live it up

Live it up, live it up

Living in the wild, wild west

The wild, wild west

The wild, wild west

The wild, wild west

(Wild west)

E|-----------------|-------------------|
B|-----------------|-------------------|
G|-----------------|-------------------| D PEAT THDE  TIMES
D|-----------------|-------------------|
A|---------2-2-4-2-|-4\6-4\6-4/2---2---|
E|-0-0-4-4---------|-------------4-----|

E|---------------|---------------|---------------|---------------|---------------|
B|-2-2-----2-----|-2-2-----2-----|-2-2-----2-----|-2-2-----2-----|-2-------------|
G|-2-2-----2-----|-2-2-----2-----|-2-2-----2-----|-2-2-----2-----|-4-------------|
D|-2-2-----2-----|-2-2-----2-----|-2-2-----2-----|-2-2-----2-----|-4-------------|
A|-0-0-3b4-0-----|-0-0-3b4-0-----|-0-0-3b4-0-----|-0-0-3b4-0-----|-2-------------|
E|---------------|---------------|---------------|---------------|---------------|

[Verse]
N.C.
Heading for the nineties, living in the eighties

Screaming in a back room, waiting for the big boom

Give me, give me wild west, give me, give me safe sex

Give me love, give me love, give me time to live it up


[GUITAR G  O]


[Verse]
N.C.
Now put your flags in the air and march them up and down

You can live it up, live it up all over the town

And turn to the left, turn to the right

I don't care as long as she comes tonight

[Chorus]
E                 B
She's so mean but I don't care
  E                     B
I love her eyes and her wild, wild hair
E                      B
Dance to the beat that we love best
A
Heading for the nineties
A                         B
Living in the wild, wild west
               B
The wild, wild west (wild west)
               B
The wild, wild west (wild west)
           B
Yeow, wild west
           B
The wild, wild west



************************************

| \  Slide down
| b  Bend
| /  Slide up
Outros vídeos desta música
    19 exibições
      • ½ Tom
      • A
      • Bb
      • B
      • C
      • Db
      • D
      • Eb
      • E
      • F
      • F#
      • G
      • Ab
    • Adicionar à lista

    Afinação da cifra

    Afinador online

      0 comentários

      Ver todos os comentários

      Conseguiu tocar?

      0Tocaram0Ainda não

      Grave um vídeo tocando Wild Wild West e nos envie!

      Toque também

      1. Imagem do artista Debbie GibsonLost In Your Eyes Debbie Gibson
      2. Imagem do artista Will To PowerBaby I Love Your Baby Will To Power
      3. Imagem do artista Wang ChungFire In The Twilight Wang Chung
      4. Imagem do artista Lou GrammLost In The Shadows Lou Gramm

      Entre para o Cifra Club PRO

      Tenha acesso a benefícios exclusivos no App e no Site

      • Chega de anúncios

      • Badges exclusivas

      • Mais recursos no app do Afinador

      • Atendimento Prioritário

      • Aumente seu limite de lista

      • Ajude a produzir mais conteúdo

      Cifra Club Pro

      Aproveite o Cifra Club com benefícios exclusivos e sem anúncios
      Cifra Club Pro
      Aproveite o Cifra Club com benefícios exclusivos e sem anúncios
      Ops (: Contenido disponible sólo en portugués.
      OK