Cifra Club

More Than Words

Extreme

Cifra: Versao-3 (violão e guitarra)
exibições 111.364
Tom: F# (forma dos acordes no tom de G) Afinação: Eb Ab Db Gb Bb Eb
(intro)
   G         G/B      C9                   Am7                  C        D     D4
E|----3--x-|-3--3--x--3--3--x-----3-----x-----0--x-----3-----x-----0--x--2-----3--x-|
B|----3--x-|-3--3--x--3--3--x-----3--3--x--1--1--x-----1--1--x--1--1--x--3-----3--x-|
G|----0--x-|-0--0--x--0--0--x-----0--0--x--0--0--x-----0--0--x--0--0--x-----2--2--x-|
D|-------x-|-------x--------x-----------x--------x-----------x--------x--0--------x-|
A|-------x-|-2-----x--3-----x--3--3--3--x--0-----x--0--0--0--x--3-----x-----------x-|
E|-3-----x-|-------x--------x-----------x--------x-----------x--------x-----------x-|
       i         i        i                    i                    i           i

   G         G/B      C9                   Am7                  C        D     D4
E|-3--3--x-|-3--3--x--3--3--x-----3-----x-----0--x-----3-----x-----0--x--2-----3--x-|
B|-3--3--x-|-3--3--x--3--3--x-----3--3--x--1--1--x-----1--1--x--1--1--x--3-----3--x-|
G|-0--0--x-|-0--0--x--0--0--x-----0--0--x--0--0--x-----0--0--x--0--0--x-----2--2--x-|
D|-------x-|-------x--------x-----------x--------x-----------x--------x--0--------x-|
A|-------x-|-2-----x--3-----x--3--3--3--x--0-----x--0--0--0--x--3-----x-----------x-|
E|-3-----x-|-------x--------x-----------x--------x-----------x--------x-----------x-|
       i         i        i                    i                    i           i

(primeira parte 2x)

"Saying i love you..."
   G         G/B      C9                   Am7                  C        D     D4
E|-3--3--x-|-3--3--x--3--3--x-----3-----x-----0--x-----3-----x-----0--x--2-----3--x-|
B|-3--3--x-|-3--3--x--3--3--x-----3--3--x--1--1--x-----1--1--x--1--1--x--3-----3--x-|
G|-0--0--x-|-0--0--x--0--0--x-----0--0--x--0--0--x-----0--0--x--0--0--x-----2--2--x-|
D|-------x-|-------x--------x-----------x--------x-----------x--------x--0--------x-|
A|-------x-|-2-----x--3-----x--3--3--3--x--0-----x--0--0--0--x--3-----x-----------x-|
E|-3-----x-|-------x--------x-----------x--------x-----------x--------x-----------x-|
       i         i        i                    i                    i           i

(segunda parte)

"How easy..."
   Em               Am7                      D7             G           D9/F#
E|-0--0--x-----0--x-----0--x-----3-----x-----2--x--2--2--x--3--x--3--x-----x--0--x-|
B|-0--0--x--0--0--x--1--1--x-----1--1--x-----1--x--1--1--x--3--x--3--x--3--x--3--x-|
G|-0--0--x--0--0--x--0--0--x-----0--0--x-----2--x--2--2--x--0--x--0--x--2--x--2--x-|
D|-------x--------x--------x-----------x-----0--x--0-----x-----x-----x-----x-----x-|
A|-------x--2-----x--0-----x--0--0--0--x--0-----x--------x-----x-----x-----x-----x-|
E|-0-----x--------x--------x-----------x--------x--------x--3--x--3--x--2--x--2--x-|

       i        i        i                             i
   Em               Am7                      D7
E|-0--0--x-----0--x-----0--x-----3-----x-----2--x--2--2--x-|
B|-0--0--x--0--0--x--1--1--x-----1--1--x-----1--x--1--1--x-|
G|-0--0--x--0--0--x--0--0--x-----0--0--x-----2--x--2--2--x-|
D|-------x--------x--------x-----------x-----0--x--0-----x-|
A|-------x--2-----x--0-----x--0--0--0--x--0-----x--------x-|
E|-0-----x--------x--------x-----------x--------x--------x-|

       i        i        i                             i
   G7                C                   Cm
E|-1--1--x--1--1--x-----0--x-----0-----x-----3--x-----3-----x-|
B|-0--0--x--0--0--x--1--1--x-----1--1--x--4--4--x-----4--4--x-|
G|-0--0--x--0--0--x--0--0--x-----0--0--x--5--5--x-----5--5--x-|
D|-------x--------x--------x-----------x--------x-----------x-|
A|-------x--2-----x--3-----x--3--3--3--x--3-----x--3--3--3--x-|
E|-3-----x--------x--------x-----------x--------x-----------x-|

       i        i        i                    i
   G                    Em7                     Am7   D7
E|-3--3--x-----3--------3--x--3--x--3--x--3--x---0----2--|
B|-3--3--x-----3--3-----3--x--3--x--3--x--3--x---1----1--|
G|-0--0--x-----0--0-----0--x--0--x--0--x--0--x---0----2--|
D|-------x-----------------x-----x--2--x-----x---2----0--|
A|-------x-----------------x--2--x-----x--2--x---0-------|
E|-3-----x--3--3--3--2--0--x-----x-----x-----x-----------|
      i

(terceira parte)

 "What would you do..."
   G                                     D9/F#           Em          Bm
E|----3--x--3--3--x--3--3--x--3--3--x--------0-----0--x--0--x-----x--------2--x-|
B|----3--x--3--3--x--3--3--x--3--3--x-----3--3--3--3--x--0--x--0--x--3-----3--x-|
G|----0--x--0--0--x--0--0--x--0--0--x-----2-----2-----x--0--x--0--x--4-----4--x-|
D|-------x--------x--------x--------x-----------------x-----x-----x-----4-----x-|
A|-------x--2-----x--------x--2-----x-----------------x-----x--2--x--2--------x-|
E|-3-----x--------x--3-----x--------x--0--2-----2-----x--0--x-----x-----------x-|
       i        i        i        i                                         i

   C                                        Am7                   D7
E|----0--x-----0-----x-----0--x--0--x--0--x-----0--x-----3-----x--2--x--2--x--2--x--2--x-|
B|-1--1--x-----1--1--x--1--1--x--1--x--1--x--1--1--x-----1--1--x--1--x--1--x--1--x--1--x-|
G|-0--0--x-----0--0--x--0--0--x--0--x--0--x--0--0--x-----0--0--x--2--x--2--x--2--x--2--x-|
D|-------x-----------x--------x-----x-----x--------x-----------x--0--x-----x--0--x-----x-|
A|-3-----x--3--3--3--x--3-----x--3--x--2--x--0-----x--0--0--0--x-----x-----x-----x-----x-|
E|-------x-----------x--------x-----x-----x--------x-----------x-----x-----x-----x-----x-|
       i                    i                    i

   G                                   D9/F#             Em          Bm
E|-3--3--x--3--3--x--3--3--x--3--3--x--------0-----0--x--0--x-----x--------2--x-|
B|-3--3--x--3--3--x--3--3--x--3--3--x-----3--3--3--3--x--0--x--0--x--3-----3--x-|
G|-0--0--x--0--0--x--0--0--x--0--0--x-----2-----2-----x--0--x--0--x--4-----4--x-|
D|-------x--------x--------x--------x-----------------x-----x-----x-----4-----x-|
A|-------x--2-----x--------x--2-----x-----------------x-----x--2--x--2--------x-|
E|-3-----x--------x--3-----x--------x--0--2-----2-----x--0--x-----x-----------x-|
       i        i        i        i                                         i

   C                                        Am7                   D7
E|----0--x-----0-----x-----0--x--0--x--0--x-----0--x-----3-----x--2-|
B|-1--1--x-----1--1--x--1--1--x--1--x--1--x--1--1--x-----1--1--x--1-|
G|-0--0--x-----0--0--x--0--0--x--0--x--0--x--0--0--x-----0--0--x--2-|
D|-------x-----------x--------x-----x-----x--------x-----------x--0-|
A|-3-----x--3--3--3--x--3-----x--3--x--2--x--0-----x--0--0--0--x----|
E|-------x-----------x--------x-----x-----x--------x-----------x----|
       i                    i

(refrão)

"Da ri da la ri ra..."
   G         G/B      C9                   Am7                  C        D     D4
E|----3--x-|-3--3--x--3--3--x-----3-----x-----0--x-----3-----x-----0--x--2-----3--x-|
B|----3--x-|-3--3--x--3--3--x-----3--3--x--1--1--x-----1--1--x--1--1--x--3-----3--x-|
G|----0--x-|-0--0--x--0--0--x-----0--0--x--0--0--x-----0--0--x--0--0--x-----2--2--x-|
D|-------x-|-------x--------x-----------x--------x-----------x--------x--0--------x-|
A|-------x-|-2-----x--3-----x--3--3--3--x--0-----x--0--0--0--x--3-----x-----------x-|
E|-3-----x-|-------x--------x-----------x--------x-----------x--------x-----------x-|
       i         i        i                    i                    i           i

   G         G/B      C9                   Am7   D7
E|-3--3--x-|-3--3--x--3--3--x-----3-----x---0----2-|
B|-3--3--x-|-3--3--x--3--3--x-----3--3--x---1----1-|
G|-0--0--x-|-0--0--x--0--0--x-----0--0--x---0----2-|
D|-------x-|-------x--------x-----------x---2----0-|
A|-------x-|-2-----x--3-----x--3--3--3--x---0------|
E|-3-----x-|-------x--------x-----------x----------|
       i         i        i

(repete tudo)

(final)

"More than... words..."
   G                 D/F#             Dm9/F            E4              Am7
E|---------3----------------0----------------0------------------0--------------0-------|
B|-----3-----3----------3-----3----------3-----3--------------0---0----------1---1-----|
G|---0---0-----0------2---2-----2------2---2-----2----------2-------2------0-------0---|
D|--------------------------------------------------------2--------------2-----------2-|
A|------------------------------------------------------2--------------0---------------|
E|-3-------------3--2-------------2--1-------------1--0--------------------------------|

(tapping)
               t                   t
E|---2-h3-h5--17--p5-p3-p2-h3-h5--15--p5-p3-p2-h3-h5-|
B|---------------------------------------------------|
G|---------------------------------------------------|
D|-0-------------------------------------------------|
A|---------------------------------------------------|
E|---------------------------------------------------|

    t                   t
E|-17--p5-p3-p2-h3-h5--15--p5-p3-p2-h3-h5--|
B|-----------------------------------------|
G|-----------------------------------------|
D|-----------------------------------------|
A|-----------------------------------------|
E|-----------------------------------------|

    t                   t
E|-14--p5-p3-p2-h3-h5--15--p5-p3-p2-h3-h5--|
B|-----------------------------------------|
G|-----------------------------------------|
D|-----------------------------------------|
A|-----------------------------------------|
E|-----------------------------------------|

    t                   t
E|-14--p5-p3-p2-h3-h5--12--p5-p3-p2-h3-h5--|
B|-----------------------------------------|
G|-----------------------------------------|
D|-----------------------------------------|
A|-----------------------------------------|
E|-----------------------------------------|

    t                   t               t
E|-10--p5-p3-p2-h3-h5--7--p5-p3-p2--h5-7-p5-p2-|
B|---------------------------------------------|
G|---------------------------------------------|
D|---------------------------------------------|
A|---------------------------------------------|
E|---------------------------------------------|

       t           t
E|---------------------------------------|
B|-h5-7-p5-p3----------------------------|
G|-------------h4-7-p4-p2-p0-------------|
D|---------------------------h4-p2-p0-h4-|
A|---------------------------------------|
E|---------------------------------------|

    t                      t        har
E|------------------------------x---7--|
B|------------------------------x---7--|
G|-7-p4-p2-p0-------------------x---7--|
D|------------h4-p2-p0----------x---7--|
A|---------------------h2-------x---7--|
E|------------------------7-p0--x---7--|

      G            C9       G/B      Gm/Bb    Am7                        G
E|---------3------------3--------3--------3------------0--3/5-p3-h5-p3---3---|
B|-------3---3------3-----3--3-----3--3-----3--------1-------------------3---|
G|-----0-------0------0--------0--------0----------0---------------------0---|
D|-----------------------------------------------2-----------------------0---|
A|---2-----------2--3--------2--------1--------0-------------------------2---|
E|-3---------------------------------------------------------------------3---|
Acordes para:
    Composição: Gary Cherone / Nuno Bettencourt Colaboração e revisão:
    • Leandro Sandim
    • wendel feitosa

    0 comentários

    mostrar mais comentários
    00:00 / 00:00
    outros vídeos desta música
    repetir qualidade Automático
    Outros vídeos desta música
    00:00 / 00:00
    Automático
    Capítulos
    • Início
    • Ensinando afinação
    • Acordes da introdução
    • Tocando a introdução
    • Ensinando o rítmo da introdução (parte 1)
    • Ensinando o rítmo da introdução (parte 2)
    • Ensinando o rítmo da introdução (parte 3)
    • Tocando a introdução devagar
    • Dica para repetição da introdução
    • Tocando a introdução completa devagar
    • Acordes e rítmo da primeira parte
    • Tocando a primeira parte
    • Acordes da segunda parte
    • Tocando a segunda parte
    • Ensinando o rítmo da segunda parte (parte 1)
    • Ensinando o rítmo da segunda parte (parte 2)
    • Ensinando o rítmo da segunda parte (parte 3)
    • Ensinando o rítmo da segunda parte (parte 4)
    • Tocando o rítmo completo da segunda parte
    • Acordes da terceira parte
    • Tocando a terceira parte
    • Ensinando o rítmo da terceira parte (parte 1)
    • Ensinando o rítmo da terceira parte (parte 2)
    • Ensinando o rítmo da terceira parte (parte 3)
    • Ensinando o rítmo da terceira parte (parte 4)
    • Tocando o rítmo completo da terceira parte
    • Dica para repetição das notas
    • Acordes do refrão
    • Tocando o refrão
    • Ensinando o rítmo do refrão
    • Variações de acordes na segunda repetição da músic
    • Tocando a segunda repetição com variações
    • Ensinando o rítmo da segunda repetição
    • Final da música (versão do clipe)
    • Ensinando rítmo do final (versão clipe)
    • Encerramento
    OK