Cifra Club

Can Kiriklari

Şebnem Ferah

Cifra: Principal (violão e guitarra)
Selo Cifra Club: esta cifra foi revisada para atender aos critérios oficiais da nossa Equipe de Qualidade.
tom: Dm
E|-----------------------------------|-------------7--------------------5----|
B|-----5h6--8~--6--6p5-----6--5~-----|---5h6--8----6---6--6p5-----------5----|
G|----------------------7------------|-------------------------7p5------5----|
D|--7------------------------------7-|-7---------------------------7~--------| *6
A|--0------------------------------0-|-0-------------------------------------|
E|-----------------------------------|---------------------------------------|


[Verse 1]

E|---------------------------------------------------------------------------|
B|---------------------------------------------------------------------------|
G|---------------------------------------------------------------------------|
D|--7-7-----------7-7-----------7-7-8-8-----------8-8----------5-8-5---------|
A|--7-7-----------7-7-----------7-7-8-8-----------8-8----------5-8-5---------|
E|--5-5--x-x-x-x--5-5--x-x-x-x--5-5-6-6--x-x-x-x--6-6--x-x-x-x-3-6-3---------|

E|---------------------------------------|-----------------------------------|
B|---------------------------------------|-11-10-8---------------------------|
G|---------------------------------------|---------10-9-7--------------------|
D|--7-7-----------7-7-----------7-7-8-8--|----------------9-8-6--------5-8-5-|
A|--7-7-----------7-7-----------7-7-8-8--|----------------------8-7-5--5-8-5-|
E|--5-5--x-x-x-x--5-5--x-x-x-x--5-5-6-6--|-----------------------------3-6-3-|

E|---------------------------------------------------------------------------|
B|---------------------------------------------------------------------------|
G|---------------------------------------------------------------------------|
D|--7-7-----------7-7-----------7-7-8-8-----------8-8----------5-8-5---------|
A|--7-7-----------7-7-----------7-7-8-8-----------8-8----------5-8-5---------|
E|--5-5--x-x-x-x--5-5--x-x-x-x--5-5-6-6--x-x-x-x--6-6--x-x-x-x-3-6-3---------|

E|---------------------------------------------------------------------------|
B|---------------------------------------------------------------------------|
G|---------------------------------------------------------------------------|
D|--7-7-----------7-7-----------7-7---8---7----------------------------------|
A|--7-7-----------7-7-----------7-7---8---7----------------------------------|
E|--5-5--x-x-x-x--5-5--x-x-x-x--5-5---6---5----------------------------------|


[Solo]

E|--5------------------------------------------------------------------------|
B|--6------------------------------------------------------------------------|
G|--7--rh| ythm----7/9---9--9----9/10---10--10----10/12----12--12----12/14--14~|
D|--7--st| ill-----x-x---x--x----x-x-----x---x-----x--x-----x---x-----x--x---x-|
A|--5--| continues-5/7---7--7----7/8-----8---8-----8/10----10--10----10/12--12~|
E|---------------------------------------------------------------------------|

E|---------------------------------------------------------------------------|
B|-13b-*5--15b-*5--16b--16b--16b--18b--18b--20b--20b--20b--22--20--22~-------|
G|---------------------------------------------------------------------------|
D|---------------------------------------------------------------------------|
A|---------------------------------------------------------------------------|
E|---------------------------------------------------------------------------|

E|---------------------------------------------------------------------------|
B|-10-------10/15----15-15-15----15/17----10-/11--10-/11--10-/11--18--18--18-|
G|--x-*7-----x--x-----x--x--x-----x--x-----x--x----x--x----x--x----x---x---x-|
D|--7--------7/12----12-12-12----12/14-----7-/8----7-/8----7-/8---15--15--15-|
A|---------------------------------------------------------------------------|
E|---------------------------------------------------------------------------|

E|---------------------------------------------------------------------------|
B|-18-13-10----9/10--9/10--9/10---18-18-18--18/20--11-----13----15------16b--|
G|--x--x-x-----x-x---x-x---x-x-----x--x--x---x--x---x-*6----*6----*6---------|
D|-15-10-7-----6/7---6/7---6/7----15-15-15--15/17---8-----10----12-----------|
A|--------------------------------------------------| like------taping---------|
E|---------------------------------------------------------------------------|

E|--5------------------------------------------------------------------------|
B|--6------------------------------------------------------------------------|
G|--7--rh| ythm----7/9---9--9----9/10---10--10----10/12----12--12----12/14--14~|
D|--7--st| ill-----x-x---x--x----x-x-----x---x-----x--x-----x---x-----x--x---x-|
A|--5--| continues-5/7---7--7----7/8-----8---8-----8/10----10--10----10/12--12~|
E|---------------------------------------------------------------------------|

E|---------------------------------------------------------------------------|
B|-15--rh| ythm------15/17---18b--17~--17b--17~--17b---------------------------|
G|--x--st| ill-----------------------------------------------------------------|
D|-12--| continues---12/14-----------------------------------------------------|
A|---------------------------------------------------------------------------|
E|---------------------------------------------------------------------------|


[Verse 2]
E|---------------------------------------------------------------------------|
B|---------------------------------------------------------------------------|
G|---------------------------------------------------------------------------|
D|---7-7-7-7---x-x---7-7-7-7-7--x-x---7-7-7-7-7---8-8-8-8---x-x---8-8-8-8-8--|
A|---7-7-7-7---x-x---7-7-7-7-7--x-x---7-7-7-7-7---8-8-8-8---x-x---8-8-8-8-8--|
E|---5-5-5-7---x-x---5-5-5-5-5--x-x---5-5-5-5-5---6-6-6-6---x-x---6-6-6-6-6--|

E|------------------------------------------------------------|-----------------------------------|
B|------------------------------------------------------------|-11-10-8---------------------------|
G|------------------------------------------------------------|---------10-9-7--------------------|
D|---5-8-5---7-7-7-7---x-x---7-7-7-7-7--x-x---7-7-7-7-7---8-8-|----------------9-8-6--------5-8-5-|
A|---5-8-5---7-7-7-7---x-x---7-7-7-7-7--x-x---7-7-7-7-7---8-8-|----------------------8-7-5--5-8-5-|
E|---3-6-3---5-5-5-7---x-x---5-5-5-5-5--x-x---5-5-5-5-5---6-6-|-----------------------------3-6-3-|

E|---------------------------------------------------------------------------|
B|---------------------------------------------------------------------------|
G|---------------------------------------------------------------------------|
D|---7-7-7-7---x-x---7-7-7-7-7--x-x---7-7-7-7-7---8-8-8-8---x-x---8-8-8-8-8--|
A|---7-7-7-7---x-x---7-7-7-7-7--x-x---7-7-7-7-7---8-8-8-8---x-x---8-8-8-8-8--|
E|---5-5-5-7---x-x---5-5-5-5-5--x-x---5-5-5-5-5---6-6-6-6---x-x---6-6-6-6-6--|

E|------------------------------------------------------|--------------------|--b| efore-outro------|
B|------------------------------------------------------|--------------------|--------------------|
G|------------------------------------------------------|--------------------|--------------------|
D|---5-8-5---7-7-7-7---x-x---7-7-7-7-7--x-x---7-7-7-7-7-|-8--------5-8-5-----|--8-------7---------|
A|---5-8-5---7-7-7-7---x-x---7-7-7-7-7--x-x---7-7-7-7-7-|-8-*11----5-8-5-----|--8-*11---7---------|
E|---3-6-3---5-5-5-7---x-x---5-5-5-5-5--x-x---5-5-5-5-5-|-6--------3-6-3-----|--6-------5---------|


[Outro]

E|-----------------------------------|-------------7--------------------5----|
B|-----5h6--8~--6--6p5-----6--5~-----|---5h6--8----6---6--6p5-----------5----|
G|----------------------7------------|-------------------------7p5------5----|
D|--7------------------------------7-|-7---------------------------7~--------|
A|--0------------------------------0-|-0-------------------------------------|
E|-----------------------------------|---------------------------------------|


************************************

| h  Hammer-on
| p  Pull-off
| ~  Vibrato
| x  Dead note
| /  Slide up
| b  Bend
| *  Repeat so many times
Outros vídeos desta música
    10 exibições
      • ½ Tom
      • Am
      • Bbm
      • Bm
      • Cm
      • C#m
      • Dm
      • Ebm
      • Em
      • Fm
      • F#m
      • Gm
      • G#m
    • Adicionar à lista

    Afinação da cifra

    Afinador online

      0 comentários

      Ver todos os comentários

      Entre para o Cifra Club PRO

      Tenha acesso a benefícios exclusivos no App e no Site

      • Chega de anúncios

      • Badges exclusivas

      • Mais recursos no app do Afinador

      • Atendimento Prioritário

      • Aumente seu limite de lista

      • Ajude a produzir mais conteúdo

      Cifra Club Pro

      Aproveite o Cifra Club com benefícios exclusivos e sem anúncios
      Cifra Club Pro
      Aproveite o Cifra Club com benefícios exclusivos e sem anúncios
      Ops (: Contenido disponible sólo en portugués.
      OK