Cifra Club

Dançar Na Chuva

Fernandinho

Cifra: Completa
exibições 10.455
Tom: D
Afinação: D A D G B E (Drop um tom na 6ª corda)

(intro)

(riff 1)


E|---------------------------------|------------------------------|
B|---------------------------------|------------------------------|
G|--------7-5----------------------|-------7-5--------------------|
D|---0-0--7-5--6--5-3-0--6--5-3-0--|--0-0--7-5--6--5-3-0--6--5-3~-| (4x)
A|---0-0--5-3--6--5-3-0--6--5-3-0--|--0-0--5-3--6--5-3-0--6--5-3~-|
D|---0-0-------6--5-3-0--6--5-3-0--|--0-0-------6--5-3-0--6--5-3~-|


   (Use este riff em todos os acordes D exceto no refrão)
     p.m.................................................

E|----------------------------------------------------------------|
B|----------------------------------------------------------------|
G|----------------------------------------------------------------|
D|--0-0-0-0-0-0-0-0-0-0-0-0-0-0....-------------------------------|
A|--0-0-0-0-0-0-0-0-0-0-0-0-0-0....-------------------------------|
D|--0-0-0-0-0-0-0-0-0-0-0-0-0-0....-------------------------------|


 (Use este riff em todos os acordes G exceto no refrão)
     p.m.................................................

E|----------------------------------------------------------------|
B|----------------------------------------------------------------|
G|----------------------------------------------------------------|
D|---5-5-5-5-5-5-5....--------------------------------------------|
A|---5-5-5-5-5-5-5....--------------------------------------------|
D|---5-5-5-5-5-5-5....--------------------------------------------|


 D
Novo caminho para andar,um novo sonho pra sonhar
                       G
O deserto não é o meu lugar
D
Uma nova vida Ele prometeu a todo aquele que Nele crê
                          G
O mar a nossa frente se abrirá

(refrão)
D              A                       Bm                    A
Nova criatura sou o velho homem já morreu vou dançar naquela terra que
         G       F#m      Em   A
Ele prometeu eu vou eu vou

D              A                     Bm                       A
Nova criatura sou o velho homem já morreu vou dançar naquela terra que
         G       F#m      Em   A
Ele prometeu eu vou eu vou

Eu vou dançar na chuvaaaaa!!!!!!

(riff 2)

        (4x)           (1x)           (4x - final)

E|------------------|---------|---------------------------------|
B|------------------|---------|---------------------------------|
G|------------------|---------|---------------------------------|
D|----9-9--11-12----|-9-9-9-9-|-----9-9--11-12------------------|
A|----9-9--11-12----|-9-9-9-9-|-----9-9--11-12------------------|
D|----9-9--11-12----|-9-9-9-9-|-----9-9--11-12------------------|


(repete tudo)

(riff 3 "baixo" - 6x)


E|--------------------------------------------------------------|
B|--------------------------------------------------------------|
G|--------------------------------------------------------------|
D|---------------7/9--------------------------------------------|
A|-----7/9------------------------------------------------------|
D|-9-9------9-9-------------------------------------------------|


E|--------------------------------------------------------------|
B|--------------------------------------------------------------|
G|--------------------------------------------------------------|
D|--9-9---9--8-8---8--7-7---7--6-6------------------------------|  (9x)
A|------9--------9--------9--------10-9-------------------------|
D|--------------------------------------------------------------|


(essa riff fica no fundo enquanto o Fernandinho fica falando dance, dance, dance...)
(quando ele grita dance, dance, dance!!!!  Fica em B )

(riff 2)

        (4x)           (1x)           (4x - final)

E|------------------|---------|---------------------------------|
B|------------------|---------|---------------------------------|
G|------------------|---------|---------------------------------|
D|----9-9--11-12----|-9-9-9-9-|-----9-9--11-12------------------|
A|----9-9--11-12----|-9-9-9-9-|-----9-9--11-12------------------|
D|----9-9--11-12----|-9-9-9-9-|-----9-9--11-12------------------|


                     D     (acaba esse riff com D )
E|--------------------------------------------------------------|
B|--------------------------------------------------------------|
G|--------------7-----------------------------------------------|
D|--------------7-----------------------------------------------|  2x
A|--------------5-----------------------------------------------|
D|--------------------------------------------------------------|


(refrão)
D              A                       Bm                    A
Nova criatura sou o velho homem já morreu vou dançar naquela terra que
         G       F#m      Em   A
Ele prometeu eu vou eu vou

D              A                     Bm                       A
Nova criatura sou o velho homem ja morreu vou dançar naquela terra que
         G       F#m      Em   A
Ele prometeu eu vou eu vou
                         Bm     (no final)
Eu vou dançar na chuvaaaaa!!!!!!
Acordes para:
    Colaboração e revisão:
    • Vitor Evangelista

    0 comentários

      mostrar mais comentários

      Conseguiu tocar?

      3tocaram0ainda não

      Grave um vídeo tocando Dançar Na Chuva e mande pra gente!

      00:00 / 00:00
      outros vídeos desta música
      repetirqualidadeautomática
      Outro vídeos desta música
        00:00 / 00:00
        automática
        OK