Cifra Club

Teus Sonhos

Fernandinho

Cifra: Completa
exibições 24.130
Tom: C
Intro: G  D  G  D

E|--3--3--5--3----8--7---3-3---------------------||      
B|--3--3--3--3----8--8---3-3--3-----3---3--------||      
G|-----------------------0-0--2-----2---2---2----||      
D|-----------------------------------------------||
A|-----------------------------------------------||
E|-----------------------------------------------||

Riff guitarra:
E|------------------------------------------------------------||
B|------------------------------------------------------------||    
G|-------7-------7----------4h5p4---------------7------7------||     
D|-4/5-5---5---5---5/7--7~--------7-5-4---4/5-5---5--5---5/7~-||
A|------------------------------------------------------------||
E|------------------------------------------------------------||

Em7                 G9   D9
Guarda o meu coração oh Deus
Em7                 G9
Guarda o meu coração
                  Am7
de fazer minha vontade
                Em7   D9
De viver pra mim mesmo

C9                    G9         D9
Quão insondáveis são os teus caminhos
C9                G9         D9
Inescrutáveis são os teus juízos

         Em7        G9
Minha vontade já deixei
       C          D11
O teu Reino já ganhei
          Em7        G9
Minha vontade já deixei
       C           D11
O teu Reino já ganhei

         G9            C9               D9
Os teus sonhos são maiores do que os meus
          G9                C9               D9
Os teus caminhos bem mais altos do que os meus
             Em7
Toma minha vida
C       D11
Tudo é teu
            Em7
Toma minha vida
C      D11
Tudo é teu

 Solo: C  Gm7  Dm7  C9
E|--------------------------------------------------------------------------||
B|--------------------------------------------------------------------------||
G|--------------------------------------------------------------------------||
D|-----14-14-14---5~----15-15-15---8~-----/7-7-7---15~----5-5-5---14-14~----||
A|--------------------------------------------------------------------------||
E|--------------------------------------------------------------------------||

C            Gm7
Venha o teu reino
      Dm7             C9
Seja feita a tua vontade

E|--------------------------------------------------------------------------||
B|--------------------------------------------------------------------------||
G|--------------------------------------------------------------------------||
D|-----14-14-14---5~----15-15-15---8~-----7-7-7---15~----5-5-5----14~-------||
A|--------------------------------------------------------------------------||
E|--------------------------------------------------------------------------||

E|--------------------------------------------------------------------------||
B|--------------------------------------------------------------------------||
G|--------------------------------------------------------------------------||
D|-----14-14-14---5~----15-15-15---8~-----7-7-7---15~----5~-----------------||
A|--------------------------------------------------------------------------||
E|--------------------------------------------------------------------------||

C            Gm7
Venha o teu reino
      Dm7             C9
Seja feita a tua vontade
Acordes para:

    0 comentários

      mostrar mais comentários

      Conseguiu tocar?

      18tocaram0ainda não

      Grave um vídeo tocando Teus Sonhos e mande pra gente!

      00:00 / 00:00
      outros vídeos desta música
      repetirqualidadeautomática
      Outro vídeos desta música
        00:00 / 00:00
        automática
        OK