Cifra Club

Aprenda

Paga Pau

Fernando e Sorocaba

Cifra: Acustico (violão e guitarra)
tom: G
(intro 2x)

E|-1/2-x-1/2-2-x-|
B|-2/3-x-2/3-3-x-|
G|-1/2-x-1/2-2-x-|
D|-0-----0---0---|
A|---------------|
E|---------------|

(parte 1)
     D               A               Bm               G
E|-1/2-x-1/2-2-x-|-0/0-x-0/0-0-x-|-1/2-x-1/2-2-x-|-3-|
B|-2/3-x-2/3-3-x-|-1/2-x-1/2-2-x-|-2/3-x-2/3-3-x-|-3-|
G|-1/2-x-1/2-2-x-|-1/2-x-1/2-2-x-|-3/4-x-3/4-4-x-|-0-|
D|-0-----0---0---|-1/2-x-1/2-2-x-|-3/4-x-3/4-4-x-|-0-|
A|---------------|-0/0---0/0-0---|-1/2-x-1/2-2-x-|-2-|
E|---------------|---------------|---------------|-3-|

(refrão)
D                   A
Você diz que não me ama
                    Bm
Você diz que não me quer
                   G
Mas ficar pagando pau!?  Haahh...

Qual é que é?

(parte 2)
     D               A               Bm               G   D
E|-1/2-x-1/2-2-x-|-0/0-x-0/0-0-x-|-1/2-x-1/2-2-x-|-3-|-2-2-2-|
B|-2/3-x-2/3-3-x-|-1/2-x-1/2-2-x-|-2/3-x-2/3-3-x-|-3-|-3-3-3-|
G|-1/2-x-1/2-2-x-|-1/2-x-1/2-2-x-|-3/4-x-3/4-4-x-|-0-|-2-2-2-|
D|-0-----0---0---|-1/2-x-1/2-2-x-|-3/4-x-3/4-4-x-|-0-|-0-0-0-|
A|---------------|-0/0---0/0-0---|-1/2-x-1/2-2-x-|-2-|-------|
E|---------------|---------------|---------------|-3-|-------|

(refrão)
D               A
Todo dia seu teatro é
             Bm
Exatamente igual
                    G
Você finge que me odeia
                    D
Mas no fundo Paga pau!

(solo 2x) D A Bm G

(parte 1)
E|-------------------------------------|
B|-----10-8-7--------------------------|
G|-6-7--------7------9-7-6-------------|
D|---------------6-7-------9-----7-7h9-|
A|---------------------------7h9-------|
E|-------------------------------------|

(esse é o solo do violino,mas fiz uma versão pra violão)
E|-------17-14--14-15^-14--------------------|
B|-10/12-----------------17-15----------15~/-|
G|-----------------------------16-14---------|
D|-----------------------------------17------|
A|-------------------------------------------|
E|-------------------------------------------|

(parte 2)
E|-------------------------------------|
B|-----10-8-7--------------------------|
G|-6-7--------7------9-7-6-------------|
D|---------------6-7-------9-----7-7h9-|
A|---------------------------7h9-------|
E|-------------------------------------|

(Essa é a 2º parte do solo do violino)
E|-------10-------10----12/15-14h15p14-12-10-12-10-7-10~/-|
B|-10h12----10h12----10-----------------------------------|
G|--------------------------------------------------------|
D|--------------------------------------------------------|
A|--------------------------------------------------------|
E|--------------------------------------------------------|

(parte 1)
     D               A               Bm               G
E|-1/2-x-1/2-2-x-|-0/0-x-0/0-0-x-|-1/2-x-1/2-2-x-|-3-|
B|-2/3-x-2/3-3-x-|-1/2-x-1/2-2-x-|-2/3-x-2/3-3-x-|-3-|
G|-1/2-x-1/2-2-x-|-1/2-x-1/2-2-x-|-3/4-x-3/4-4-x-|-0-|
D|-0-----0---0---|-1/2-x-1/2-2-x-|-3/4-x-3/4-4-x-|-0-|
A|---------------|-0/0---0/0-0---|-1/2-x-1/2-2-x-|-2-|
E|---------------|---------------|---------------|-3-|

D                   A
Ela é atriz, ela faz cena
                  Bm
Ela mete uma pressão
                   G
Se joga na minha frente.  Haããhh.
            D
Não engana não!

(parte 2)
     D               A               Bm               G   D
E|-1/2-x-1/2-2-x-|-0/0-x-0/0-0-x-|-1/2-x-1/2-2-x-|-3-|-x-x-|
B|-2/3-x-2/3-3-x-|-1/2-x-1/2-2-x-|-2/3-x-2/3-3-x-|-3-|-x-x-|
G|-1/2-x-1/2-2-x-|-1/2-x-1/2-2-x-|-3/4-x-3/4-4-x-|-0-|-x-x-|
D|-0-----0---0---|-1/2-x-1/2-2-x-|-3/4-x-3/4-4-x-|-0-|-x-x-|
A|---------------|-0/0---0/0-0---|-1/2-x-1/2-2-x-|-2-|-x-x-|
E|---------------|---------------|---------------|-3-|-x-x-|

D                  A
Feito cobra mal matada
                     Bm
Ela rebola, eu passo mal
                 G
Com o nariz empinado.
         D
Ela é a tal!

(parte 3)
     D               A               Bm               G
E|-1/2-x-1/2-2-x-|-0/0-x-0/0-0-x-|-1/2-x-1/2-2-x-|-3-|
B|-2/3-x-2/3-3-x-|-1/2-x-1/2-2-x-|-2/3-x-2/3-3-x-|-3-|
G|-1/2-x-1/2-2-x-|-1/2-x-1/2-2-x-|-3/4-x-3/4-4-x-|-0-|
D|-0-----0---0---|-1/2-x-1/2-2-x-|-3/4-x-3/4-4-x-|-0-|
A|---------------|-0/0---0/0-0---|-1/2-x-1/2-2-x-|-2-|
E|---------------|---------------|---------------|-3-|

D                 A
Se eu mando um xaveco
                 Bm
Ela finge não ouvir
                          G
Mas se eu grito:Olha a bruxa! ( iih, agora olhou!)
            D
Vem discutir.

(parte 4)
     D               A               Bm               G   G
E|-1/2-x-1/2-2-x-|-0/0-x-0/0-0-x-|-1/2-x-1/2-2-x-|-3-|-3-|
B|-2/3-x-2/3-3-x-|-1/2-x-1/2-2-x-|-2/3-x-2/3-3-x-|-3-|-3-|
G|-1/2-x-1/2-2-x-|-1/2-x-1/2-2-x-|-3/4-x-3/4-4-x-|-0-|-0-|
D|-0-----0---0---|-1/2-x-1/2-2-x-|-3/4-x-3/4-4-x-|-0-|-0-|
A|---------------|-0/0---0/0-0---|-1/2-x-1/2-2-x-|-2-|-2-|
E|---------------|---------------|---------------|-3-|-3-|

D           A
Sua psicologia
                      Bm
Tá um tanto quando errada
                     G
Ou me aceita de uma vez.
         D
Ou tá danada!

(refrão)
D                   A
Você diz que não me ama
                    Bm
Você diz que não me quer
                   G
Mas ficar pagando pau!?  Haahh...

Qual é que é?

D               A
Todo dia seu teatro é
             Bm
Exatamente igual
                    G
Você finge que me odeia
                    D
Mas no fundo Paga pau!

(solo)

D                   A
Ela é atriz, ela faz cena
                  Bm
Ela mete uma pressão
                   G
Se joga na minha frente.  Haããhh.
            D
Não engana não!

(parte 2)
     D               A               Bm               G   D
E|-1/2-x-1/2-2-x-|-0/0-x-0/0-0-x-|-1/2-x-1/2-2-x-|-3-|-x-x-|
B|-2/3-x-2/3-3-x-|-1/2-x-1/2-2-x-|-2/3-x-2/3-3-x-|-3-|-x-x-|
G|-1/2-x-1/2-2-x-|-1/2-x-1/2-2-x-|-3/4-x-3/4-4-x-|-0-|-x-x-|
D|-0-----0---0---|-1/2-x-1/2-2-x-|-3/4-x-3/4-4-x-|-0-|-x-x-|
A|---------------|-0/0---0/0-0---|-1/2-x-1/2-2-x-|-2-|-x-x-|
E|---------------|---------------|---------------|-3-|-x-x-|

D                  A
Feito cobra mal matada
                     Bm
Ela rebola, eu passo mal
                 G
Com o nariz empinado.
         D
Ela é a tal!

(parte 3)
     D               A               Bm               G
E|-1/2-x-1/2-2-x-|-0/0-x-0/0-0-x-|-1/2-x-1/2-2-x-|-3-|
B|-2/3-x-2/3-3-x-|-1/2-x-1/2-2-x-|-2/3-x-2/3-3-x-|-3-|
G|-1/2-x-1/2-2-x-|-1/2-x-1/2-2-x-|-3/4-x-3/4-4-x-|-0-|
D|-0-----0---0---|-1/2-x-1/2-2-x-|-3/4-x-3/4-4-x-|-0-|
A|---------------|-0/0---0/0-0---|-1/2-x-1/2-2-x-|-2-|
E|---------------|---------------|---------------|-3-|

D                 A
Se eu mando um xaveco
                 Bm
Ela finge não ouvir
                          G
Mas se eu grito:Olha a bruxa! (agora ouviu!)
            D
Vem discutir.

(parte 4)
     D               A               Bm               G   G
E|-1/2-x-1/2-2-x-|-0/0-x-0/0-0-x-|-1/2-x-1/2-2-x-|-3-|-3-|
B|-2/3-x-2/3-3-x-|-1/2-x-1/2-2-x-|-2/3-x-2/3-3-x-|-3-|-3-|
G|-1/2-x-1/2-2-x-|-1/2-x-1/2-2-x-|-3/4-x-3/4-4-x-|-0-|-0-|
D|-0-----0---0---|-1/2-x-1/2-2-x-|-3/4-x-3/4-4-x-|-0-|-0-|
A|---------------|-0/0---0/0-0---|-1/2-x-1/2-2-x-|-2-|-2-|
E|---------------|---------------|---------------|-3-|-3-|

D           A
Sua psicologia
                      Bm
Tá um tanto quando errada
                     G
Ou me aceita de uma vez.
         D
Ou tá danada!

(Refrão)

D                   A
Você diz que não me ama
                    Bm
Você diz que não me quer
                   G
Mas ficar pagando pau!?  Haahh...

Qual é que é?

D               A
Todo dia seu teatro é
             Bm
Exatamente igual
                    G
Você finge que me odeia
                    D  G
Mas no fundo Paga pau!

(solo violino 2x) C G D

(refrão 3x)
Composição de Sorocaba
Colaboração e revisão:
  • Paulo Ricardo
14.073 exibições
  • Simplificar cifra
    • ½ Tom
    • A
    • Bb
    • B
    • C
    • Db
    • D
    • Eb
    • E
    • F
    • F#
    • G
    • Ab
  • Adicionar à lista

    0 comentários

    Ver todos os comentários
    00:00 / 00:00
    Outros vídeos desta música
    Repetir Qualidade Automático
    Outros vídeos desta música
    00:00 / 00:00
    Automático

    Cifra Club Pro

    Aproveite o Cifra Club com benefícios exclusivos e sem anúncios
    Cifra Club Pro
    Aproveite o Cifra Club com benefícios exclusivos e sem anúncios
    OK