Cifra Club

Aprenda

Letters to you

Finch

Cifra: Versão 10 (violão e guitarra)
tom: E

Guitar 1

D#||--5--5--5--5--5--5--5--5--5--5--5--5--5--5--5--5--|
A#||--5--5--5--5--5--5--5--5--5--5--5--5--5--5--5--5--|
F#||--7--7--7--7--7--7--7--7--7--7--7--7--7--7--7--7--|
C#||--------------------------------------------------|
G#||--------------------------------------------------|
C#||--------------------------------------------------|



--5--5--5--5--5--5--5--5--5--5--5--5--5--------||---------------------------|
--5--5--5--5--5--5--5--5--5--5--5--5--5--------||---------------------------|
--7--7--7--7--7-----7--7--7--7--7--7--7--------||*--------------------------|
-----------------------------------------------||*--7--7--7--7--7--7--7--7--|
-----------------------------------------------||---5--5--5--5--5--5--5--5--|
-----------------------------------------------||---0--0--0--0--0--0--0--0--|

--------------------------|--------------------------|
--------------------------|--------------------------|
--------------------------|--------------------------|
--7--7--7--7--7--7--7--7--|--7--7--7--7--7--7--7--7--|
--5--5--5--5--5--5--5--5--|--4--4--4--4--4--4--4--4--|
--0--0--0--0--0--0--0--0--|--4--4--4--4--4--4--4--4--|

--------------------------|--------------------------|
--------------------------|--------------------------|
--------------------------|--------------------------|
--7--7--7--7--7--7--7--7--|--7--7--7--7--7--7--7--7--|
--4--4--4--4--4--4--4--4--|--5--5--5--5--5--5--5--5--|
--4--4--4--4--4--4--4--4--|--5--5--5--5--5--5--5--5--|

--------------------------|--------------------------|
--------------------------|--------------------------|
--------------------------|--------------------------|
--7--7--7--7--7--7--7--7--|--7--7--7--7--7--7--7--7--|
--5--5--5--5--5--5--5--5--|--7--7--7--7--7--7--7--7--|
--5--5--5--5--5--5--5--5--|--7--7--7--7--7--7--7--7--|

---------------------------||--------------------------|
---------------------------||--------------------------|
--------------------------*||--------------------------|
--7--7--7--7--7--7--7--7--*||--7--7--7--7--7--7--7--7--|
--7--7--7--7--7--7--7--7---||--5--5--5--5--5--5--5--5--|
--7--7--7--7--7--7--7--7---||--5--5--5--5--5--5--5--5--|

--------------------------|--------------------------|
--------------------------|--------------------------|
--------------------------|--------------------------|
--7--7--7--7--7--7--7--7--|--7--7--7--7--7--7--7--7--|
--7--7--7--7--7--7--7--7--|--7--7--7--7--7--7--7--7--|
--7--7--7--7--7--7--7--7--|--7--7--7--7--7--7--7--7--|

|---------------------------------------------|-----------------------|
|---------------------------------------------|-----------------------|
|*--------------------------------------------|-----------------------|
|*--7-------7-------7-------7-------7----7----|--7-------7-------7----|
|---4-------4-------4-------4-------4----4----|--5-------5-------5----|
|---4----x--4----x--4----x--4----x--4----4----|--5----x--5----x--5----|

-----------------------|---------------------|---------------------|
-----------------------|---------------------|---------------------|
-----------------------|---------------------|---------------------|
-----7-------7----7----|--7------7------7----|----7------7----7----|
-----5-------5----5----|--5------5------5----|----5------5----5----|
--x--5----x--5----5----|--0------0------0----|----0------0----0----|

---------------------|----------------------||--------------------|
---------------------|----------------------||--------------------|
---------------------|---------------------*||--------------------|
--7------7------7----|----7------7----7----*||----7------7--------|
--5------5------5----|----5------5----5-----||----5------5--------|
--0------0------0----|----0------0----0-----||----0------0--------|

|---------------------------|--------------------------|
|---------------------------|--------------------------|
|*--------------------------|--------------------------|
|*--9--9--9--9--9--9--9--9--|--9--9--9--9--9--9--9--9--|
|---9--9--9--9--9--9--9--9--|--9--9--9--9--9--9--9--9--|
|---9--9--9--9--9--9--9--9--|--9--9--9--9--9--9--9--9--|

--------------------------|--------------------------|
--------------------------|--------------------------|
--------------------------|--------------------------|
--7--7--7--7--7--7--7--7--|--7--7--7--7--7--7--7--7--|
--5--5--5--5--5--5--5--5--|--5--5--5--5--5--5--5--5--|
--5--5--5--5--5--5--5--5--|--5--5--5--5--5--5--5--5--|

--------------------------|--------------------------|
--------------------------|--------------------------|
--------------------------|--------------------------|
--7--7--7--7--7--7--7--7--|--7--7--7--7--7--7--7--7--|
--5--5--5--5--5--5--5--5--|--5--5--5--5--5--5--5--5--|
--0--0--0--0--0--0--0--0--|--0--0--0--0--0--0--0--0--|

--------------------------|---------------------------||
--------------------------|---------------------------||
--------------------------|--------------------------*||
--7--7--7--7--7--7--7--7--|--7--7--7--7--7--7--7--7--*||
--4--4--4--4--4--4--4--4--|--4--4--4--4--4--4--4--4---||
--4--4--4--4--4--4--4--4--|--4--4--4--4--4--4--4--4---||

--5--5--5--5--5--5--5--5--|--5--5--5--5--5--------||---------------------------|
--5--5--5--5--5--5--5--5--|--5--5--5--5--5--------||---------------------------|
--7--7--7--7--7--7--7--7--|--7--7--7--7--7--------||*--------------------------|
--------------------------|-----------------------||*--7--7--7--7--7--7--7--7--|
--------------------------|-----------------------||---5--5--5--5--5--5--5--5--|
--------------------------|-----------------------||---0--0--0--0--0--0--0--0--|

--------------------------|--------------------------|
--------------------------|--------------------------|
--------------------------|--------------------------|
--7--7--7--7--7--7--7--7--|--7--7--7--7--7--7--7--7--|
--5--5--5--5--5--5--5--5--|--4--4--4--4--4--4--4--4--|
--0--0--0--0--0--0--0--0--|--4--4--4--4--4--4--4--4--|

--------------------------|--------------------------|
--------------------------|--------------------------|
--------------------------|--------------------------|
--7--7--7--7--7--7--7--7--|--7--7--7--7--7--7--7--7--|
--4--4--4--4--4--4--4--4--|--5--5--5--5--5--5--5--5--|
--4--4--4--4--4--4--4--4--|--5--5--5--5--5--5--5--5--|

--------------------------|--------------------------|
--------------------------|--------------------------|
--------------------------|--------------------------|
--7--7--7--7--7--7--7--7--|--7--7--7--7--7--7--7--7--|
--5--5--5--5--5--5--5--5--|--7--7--7--7--7--7--7--7--|
--5--5--5--5--5--5--5--5--|--7--7--7--7--7--7--7--7--|

---------------------------||---------------------------------------------|
---------------------------||---------------------------------------------|
--------------------------*||*--------------------------------------------|
--7--7--7--7--7--7--7--7--*||*--7-------7-------7-------7-------7----7----|
--7--7--7--7--7--7--7--7---||---4-------4-------4-------4-------4----4----|
--7--7--7--7--7--7--7--7---||---4----x--4----x--4----x--4----x--4----4----|

-----------------------|-----------------------|---------------------|
-----------------------|-----------------------|---------------------|
-----------------------|-----------------------|---------------------|
--7-------7-------7----|-----7-------7----7----|--7------7------7----|
--5-------5-------5----|-----5-------5----5----|--0------0------0----|
--5----x--5----x--5----|--x--5----x--5----5----|--0------0------0----|

---------------------|---------------------|----------------------||
---------------------|---------------------|----------------------||
---------------------|---------------------|---------------------*||
----7------7----7----|--7------7------7----|----7------7----7----*||
----0------0----0----|--0------0------0----|----0------0----0-----||
----0------0----0----|--0------0------0----|----0------0----0-----||

--------------------||---------------------------|--------------------------|
--------------------||---------------------------|--------------------------|
--------------------||*--------------------------|--------------------------|
----7------7--------||*--9--9--9--9--9--9--9--9--|--9--9--9--9--9--9--9--9--|
----0------0--------||---9--9--9--9--9--9--9--9--|--9--9--9--9--9--9--9--9--|
----0------0--------||---9--9--9--9--9--9--9--9--|--9--9--9--9--9--9--9--9--|

--------------------------|--------------------------|
--------------------------|--------------------------|
--------------------------|--------------------------|
--7--7--7--7--7--7--7--7--|--7--7--7--7--7--7--7--7--|
--5--5--5--5--5--5--5--5--|--5--5--5--5--5--5--5--5--|
--5--5--5--5--5--5--5--5--|--5--5--5--5--5--5--5--5--|

--------------------------|--------------------------|
--------------------------|--------------------------|
--------------------------|--------------------------|
--7--7--7--7--7--7--7--7--|--7--7--7--7--7--7--7--7--|
--5--5--5--5--5--5--5--5--|--5--5--5--5--5--5--5--5--|
--0--0--0--0--0--0--0--0--|--0--0--0--0--0--0--0--0--|

                                                      3x
--------------------------|---------------------------||
--------------------------|---------------------------||
--------------------------|--------------------------*||
--7--7--7--7--7--7--7--7--|--7--7--7--7--7--7--7--7--*||
--4--4--4--4--4--4--4--4--|--4--4--4--4--4--4--4--4---||
--4--4--4--4--4--4--4--4--|--4--4--4--4--4--4--4--4---||

-------------------------|------------------------||----------------------|
-------------------------|------------------------||----------------------|
*--7--7----7--7----7--7--|----7--7----7--7----7--*||----7--7----7--7------|
*--x--x----x--x----x--x--|----x--x----x--x----x--*||----x--x----x--x------|
---5--5----5--5----5--5--|----5--5----5--5----5---||----5--5----5--5------|
-------------------------|------------------------||----------------------|

|-------------------------|------------------------|-----------------------|
|-------------------------|------------------------|-----------------------|
|*--7--7----7--7----7--7--|-----7--7----7--7----7--|--7----7--7----7--7----|
|*--x--x----x--x----x--x--|--x--x--x----x--x----x--|--x----x--x----x--x----|
|---5--5----5--5----5--5--|-----5--5----5--5----5--|--5----5--5----5--5----|
|-------------------------|------------------------|-----------------------|

                        3x
------------------------||--------------------------|--------------------------|
------------------------||--------------------------|--------------------------|
--7--7----7--7----7----*||--------------------------|--------------------------|
--x--x----x--x----x----*||--9--9--9--9--9--9--9--9--|--9--9--9--9--9--9--9--9--|
--5--5----5--5----5-----||--9--9--9--9--9--9--9--9--|--9--9--9--9--9--9--9--9--|
------------------------||--9--9--9--9--9--9--9--9--|--9--9--9--9--9--9--9--9--|

--------------------------|--------------------------|
--------------------------|--------------------------|
--------------------------|--------------------------|
--7--7--7--7--7--7--7--7--|--7--7--7--7--7--7--7--7--|
--5--5--5--5--5--5--5--5--|--5--5--5--5--5--5--5--5--|
--5--5--5--5--5--5--5--5--|--5--5--5--5--5--5--5--5--|

--------------------------|--------------------------|
--------------------------|--------------------------|
--------------------------|--------------------------|
--7--7--7--7--7--7--7--7--|--7--7--7--7--7--7--7--7--|
--5--5--5--5--5--5--5--5--|--5--5--5--5--5--5--5--5--|
--0--0--0--0--0--0--0--0--|--0--0--0--0--0--0--0--0--|

--------------------------|-----------------------||---------------------------|
--------------------------|-----------------------||---------------------------|
--------------------------|-----------------------||*--------------------------|
--7--7--7--7--7--7--7--7--|--7--7--7--7--7--------||*--9--9--9--9--9--9--9--9--|
--4--4--4--4--4--4--4--4--|--4--4--4--4--4--------||---9--9--9--9--9--9--9--9--|
--4--4--4--4--4--4--4--4--|--4--4--4--4--4--------||---9--9--9--9--9--9--9--9--|

--------------------------|--------------------------|
--------------------------|--------------------------|
--------------------------|--------------------------|
--9--9--9--9--9--9--9--9--|--7--7--7--7--7--7--7--7--|
--9--9--9--9--9--9--9--9--|--5--5--5--5--5--5--5--5--|
--9--9--9--9--9--9--9--9--|--5--5--5--5--5--5--5--5--|

--------------------------|--------------------------|
--------------------------|--------------------------|
--------------------------|--------------------------|
--7--7--7--7--7--7--7--7--|--7--7--7--7--7--7--7--7--|
--5--5--5--5--5--5--5--5--|--5--5--5--5--5--5--5--5--|
--5--5--5--5--5--5--5--5--|--0--0--0--0--0--0--0--0--|

--------------------------|--------------------------|
--------------------------|--------------------------|
--------------------------|--------------------------|
--7--7--7--7--7--7--7--7--|--7--7--7--7--7--7--7--7--|
--5--5--5--5--5--5--5--5--|--4--4--4--4--4--4--4--4--|
--0--0--0--0--0--0--0--0--|--4--4--4--4--4--4--4--4--|

                           4x
---------------------------||--5--5--5--5--5--5--5--5--5--5--5--5--5--5--5--5--|
---------------------------||--5--5--5--5--5--5--5--5--5--5--5--5--5--5--5--5--|
--------------------------*||--7--7--7--7--7--7--7--7--7--7--7--7--7--7--7--7--|
--7--7--7--7--7--7--7--7--*||--------------------------------------------------|
--4--4--4--4--4--4--4--4---||--------------------------------------------------|
--4--4--4--4--4--4--4--4---||--------------------------------------------------|

--5--5--5--5--5--5--5--5--5--5--5--5--5--------|
--5--5--5--5--5--5--5--5--5--5--5--5--5--------|
--7--7--7--7--7--7--7--7--7--7--7--7--7--------|
-----------------------------------------------|
-----------------------------------------------|
-----------------------------------------------|

--------------------------------------------------|
--------------------------------------------------|
--------------------------------------------------|
--7--7--7--7--7--7--7--7--7--7--7--7--7--7--7--7--|
--5--5--5--5--5--5--5--5--5--5--5--5--5--5--5--5--|
--0--0--0--0--0--0--0--0--0--0--0--0--0--0--0--0--|

------------------------------------------|----||
------------------------------------------|----||
------------------------------------------|----||
--7--7--7--7--7--7--7--7------------------|----||
--5--5--5--5--5--5--5--5------------------|----||
--0--0--0--0--0--0--0--0------------------|----||
Composição de Finch / Nate Barcalow
227 exibições
    • ½ Tom
    • A
    • Bb
    • B
    • C
    • Db
    • D
    • Eb
    • E
    • F
    • F#
    • G
    • Ab
  • Adicionar à lista

    0 comentários

    Ver todos os comentários
    00:00 / 00:00
    outros vídeos desta música
    repetir qualidade Automático
    Outros vídeos desta música
    00:00 / 00:00
    Automático

    Cifra Club Pro

    Aproveite o Cifra Club com benefícios exclusivos e sem anúncios
    Cifra Club Pro
    Aproveite o Cifra Club com benefícios exclusivos e sem anúncios
    OK