Cifra Club

Aprenda

Arlandria

Foo Fighters

Cifra: Principal (violão e guitarra)
tom: E
Introdução:

(Guitarra 1)

E|----------------------------------------------------|
B|----------------------------------------------------|
G|----------------------------------------------------|
D|-----6-4~-6-----------6-4~--------------------------|
A|-4-7--------4\----4-7------7-4----------------------|
E|----------------------------------------------------|

E|----------------------------------------------------|
B|----------------------------------------------------|
G|----------------------------------------------------|
D|-----6-4~-6-----------6-4~-6------------------------|
A|-4-7--------4\----4-7--------7b---------------------|
E|----------------------------------------------------|

(Guitarra 2)

E|----------------------------------------------------|
B|-----9-7~-9-----------9-7~--------------------------|
G|-6-9--------------6-9------9-6----------------------|
D|----------------------------------------------------|
A|----------------------------------------------------|
E|----------------------------------------------------|

E|----------------------------------------------------|
B|-----9-7~-9-----------9-7~-9------------------------|
G|-6-9--------------6-9--------9b---------------------|
D|----------------------------------------------------|
A|----------------------------------------------------|
E|----------------------------------------------------|

Primeira Parte:

(Primeira Estrofe)
                               C#m7  A5(9)
Ain't that the way it always starts?
E5        F#                C#m7  A5(9)
   A simple round of conversation
E5        F#            C#m7  A5(9)
   Became a shameful equation
E5         F#               C#m7  A5(9)  E5  F#5
   I flip to station to station

(Segunda Estrofe)

 C#m7  A5(9)  E5
Hey,
         F#                  C#m7  A5(9)  E5
Don't go and turn the other way
            F#                    C#m7
Don't say there's nothing more to      say
A5(9)  E5         F#
          Come on and hear me out

(Terceira Estrofe)

E|----------------------------------------------------|
B|--------9-9---------9-9---------9-9---------9-9-----|
G|-11b13-------11b13-------11b13-------11b13----------|
D|----------------------------------------------------|
A|----------------------------------------------------|
E|----------------------------------------------------|

E|----------------------------------------------------|
B|--------9-9---------9-9---------9-9-----------------|
G|-11b13-------11b13-------11b13-------11b13----------|
D|--------------------------------------------x\------|
A|--------------------------------------------x\------|
E|--------------------------------------------x\------|

 C#m7       A5(9)
Hush, hush,       settle down
 E5         F#
Button up, don't make a sound
 C#m7         A5(9)
Shame, shame,       go away
 E5         F#
Come again some other day


Primeiro Refrão:

C#5                             A5
    You used to say I couldn't save you enough
              E5
So I've been saving it up
           B5          F#5
I started saving it up
C#5                               A5
    And when you said I couldn't give you enough
           E5
I started giving you up
           B5        F#5
I started giving you up

(Riff 1 do Refrão)

E|-0-0-0-0----------------------------------|
B|-5-5-5-5---------------------7------9-----|
G|-6-6-6-6--4h6-4--------------9b11~--10b12~|  (2x)
D|----------------6-4~---6-7~---------------|
A|------------------------------------------|
E|------------------------------------------|

C#5                F#5
    You are not me
           A5           B5  C5
Arlandria,    Arlandria
 C#5               F#5
You and what army?
           A5           B5
Arlandria,    Arlandria
             C5             C#5
Oh God, you gotta make it stop

Passagem: C#m7  A5(9)  E5  F#  C#m7  A5(9)  E5  F#

(Guitarra 1)

E|------------------------------------------|
B|------------------------------------------|
G|-4-----4---------------4-----4------------|
D|-2-----2----2-----4----2-----2----2-----4-|
A|-4-0-4-0----2-----4----4-0-4-0----2-----4-|
E|------------0-0-0-2---------------0-0-4-2-|

(Guitarra 2)

E|------------------------------------------|
B|-0-0-0-0-0-0-0-0-0-0-0-0-0-0-0-0----------|
G|-4-4-4-4-4-4-4-4-4-4-4-3-3-3-3-3----------|  (2x)
D|-2-2-2-2-2-2-2-2-2-2-2-4-4-4-4-4----------|
A|------------------------------------------|
E|------------------------------------------|

Segunda Parte:

(Quarta Estrofe)

E|-------------0---------------0------------|
B|-----0-----0---0-----0-----0---0----------|
G|---4-----4---------4-----3----------------|
D|-6-----4---------2-----4------------------|
A|------------------------------------------|
E|------------------------------------------|

  C#m7  A5(9)  E5
Chase
         F#             C#m7  A5(9)  E5
All of those memories away
          F#              C#m7     A5(9)  E5
Save them all for another      day
           F#              C#m7
Don't you remember it was rain
  A5(9)  E5    F#
That   drowned    you?

(Quinta Estrofe)

(Guitarra 1)

E|----------------------------------------------------|
B|----------------------------------------------------|
G|---4-----4---4-----4-----3---3----------------------|
D|----------------------------------------------------|
A|-4---4-0---0---0------------------------------------|
E|-----------------0---0-2---2---2--------------------|

(Guitarra 2)

E|----------------------------------------------------|
B|----------------------------------------------------|
G|----------------------------------------------------|
D|-11\------------------------------------------------|
A|-11\------------------------------------------------|
E|-9-\------------------------------------------------|

Wait
I wanna see if you could change
I wanna keep all I can take
I feel much better now

(Sexta Estrofe)

E|--------9-9---------9-9---------9-9---------9-9-----|
B|-12b14-------12b14-------12b14-------12b14----------|
G|----------------------------------------------------|
D|----------------------------------------------------|
A|----------------------------------------------------|
E|----------------------------------------------------|

E|--------9-9---------9-9---------9-9-----------------|
B|-12b14-------12b14-------12b14-------12b14----------|
G|----------------------------------------------------|
D|--------------------------------------------x\------|
A|--------------------------------------------x\------|
E|--------------------------------------------x\------|

Use me up, spit me out
Let me be your hand me down
Fame, fame, go away
Come again some other day


Segundo Refrão:

C#5                             A5
    You used to say I couldn't save you enough
              E5
So I've been saving it up
           B5          F#5
I started saving it up
C#5                               A5
    And when you said I couldn't give you enough
           E5
I started giving you up
           B5        C5
I started giving you up

(Riff 1 do Refrão)

C#5                F#5
    You are not me
           A5           B5  C5
Arlandria,    Arlandria
 C#5               F#5
You and what army?
           A5           B5
Arlandria,    Arlandria
             C5             C#5
Oh God, you gotta make it stop

(Riff 2 do Refrão - Guitarra 1)

E|----------------------------------------------------|
B|----------------------------------------------------|
G|-/9-9-9-9-9-9-9-9-x-8-8-8-x-6-x-4-4-----------------|
D|------------------------------------7-6-6-6---------|
A|----------------------------------------------------|
E|----------------------------------------------------|

E|----------------------------------------------------|
B|----------------------------------------------------|
G|-/9-9-9/11-11-8-8-8-x-6-4-6-6-----------------------|
D|------------------------------6-6-6-6---------------|
A|----------------------------------------------------|
E|----------------------------------------------------|

E|----------------------------------------------------|
B|----------------------------------------------------|
G|-/9-9-9-x-8-8-8-x-6-x-4-4---------------------------|
D|--------------------------7-6-6-6-------------------|
A|----------------------------------------------------|
E|----------------------------------------------------|

E|----------------------------------------------------|
B|------7-----7----7----8------8-----8-----9----------|
G|-/9-9-9b11--9b11-9b11-10b12--10b12-10b12-11b13\-----|
D|----------------------------------------------------|
A|----------------------------------------------------|
E|----------------------------------------------------|

     A5           E5
My sweet Virginia
         B5           F#5              C#5
I'm the same as I was     in your arms
     A5           E5
My sweet Virginia
         B5        C5          C#5
I'm the same as I was in your heart

( C#m7  A5(9)  E5  F#  C#m7  A5(9)  E5  F# )


Terceira Parte:

(Sétima Estrofe)

  C#m7        A5(9)
Shame, shame,       go away
 E5         F#
Come again some other day
  C#m7    A5(9)
Memories keep haunting me
 E5             F#
Help me chase them all away

(Oitava Estrofe)

 C#m7     A5(9)
Hush now,       settle down
 E5         F#
Button up, don't make a sound
 C#m7            A5(9)
Close your eyes,       turn around
 E5            F#
Help me burn this to the ground

(Nona Estrofe)

E|----------------------------------------------------|
B|--------9-9---------9-9---------9-9---------9-9-----|
G|-11b13-------11b13-------11b13-------11b13----------|
D|----------------------------------------------------|
A|----------------------------------------------------|
E|----------------------------------------------------|

E|----------------------------------------------------|
B|--------9-9---------9-9---------9-9---------9-9-----|
G|-11b13-------11b13-------11b13-------11b13----------|
D|----------------------------------------------------|
A|----------------------------------------------------|
E|----------------------------------------------------|

E|--------9-9---------9-9---------9-9---------9-9-----|
B|-12b14-------12b14-------12b14-------12b14----------|
G|----------------------------------------------------|
D|----------------------------------------------------|
A|----------------------------------------------------|
E|----------------------------------------------------|

E|--------9-9---------9-9---------9-9---------9-------|
B|-12b14-------12b14-------12b14-------12b14----------|
G|----------------------------------------------------|
D|----------------------------------------------------|
A|----------------------------------------------------|
E|----------------------------------------------------|

  C#m7   A5(9)
Come now       take the blame
  E5       F#
That's ok. I'll play the game
C#m7         A5(9)
I don't care       it's all the same
 E5            F#
Watch you all go up in flames
C#m7       A5(9)
Use me up,       spit me out
 E5        F#
Let me be your hand me down
 C#m7       A5(9)
Fame, fame,       go away
 E5         F#
Come again some other day


Terceira Parte:

C#5                             A5
    You used to say I couldn't save you enough
              E5
So I've been saving it up
           B5          F#5
I started saving it up
C#5                               A5
    And when you said I couldn't give you enough
           E5
I started giving you up
           B5        F#5
I started giving you up

(Riff 3 do Refrão)

E|----------------------------------------------------|
B|----------------------------------------------------|
G|-/9-9-9\8--8-8-8\6--6-6-6\4--4---4-4h6-4---4--4-4-4-|
D|-------------------------------6---------6----------|
A|----------------------------------------------------|
E|----------------------------------------------------|

E|----------------------------------------------------|
B|----------------------------------------------------|
G|-4h6-4---4/5~--5------------------------------------|
D|-------6--------------------------------------------|
A|----------------------------------------------------|
E|----------------------------------------------------|

C#5                F#5
    You are not me
           A5           B5  C5
Arlandria,    Arlandria
 C#5               F#5
You and what army?
           A5           B5
Arlandria,    Arlandria
             C5             C#5
Oh God, you gotta make it stop

(Introdução - Variação - Guitarra 1)

E|----------------------------------------------------|
B|----------------------------------------------------|
G|----------------------------------------------------|
D|-----6-4~-6~----------6-4~--------------------------|
A|-4-7--------------4-7------7-4----------------------|
E|----------------------------------------------------|

E|----------------------------------------------------|
B|----------------------------------------------------|
G|----------------------------------------------------|
D|-----6-4~-------4--5--------------------------------|
A|-4-7------7-4-0-2--3--------------------------------|
E|----------------------------------------------------|

(Introdução - Variação - Guitarra 2)

E|----------------------------------------------------|
B|-----9-7~-9-----------9-7~--------------------------|
G|-6-9--------------6-9------9-6----------------------|
D|----------------------------------------------------|
A|----------------------------------------------------|
E|----------------------------------------------------|

E|---------------/7~--8~------------------------------|
B|-----9-7~-------------------------------------------|
G|-6-9------9-6---------------------------------------|
D|----------------------------------------------------|
A|----------------------------------------------------|
E|----------------------------------------------------|

Oh God, you gotta make it stop!
My sweet Virginia
Oh God, you gotta make it stop
My sweet Virginia
Oh God, you gotta make it stop
Composição de Foo Fighters
Colaboração e revisão:
  • Vinícius Dias
  • Jean Santos
50.942 exibições
  • Simplificar cifra
    • ½ Tom
    • A
    • Bb
    • B
    • C
    • Db
    • D
    • Eb
    • E
    • F
    • F#
    • G
    • Ab
  • Adicionar à lista

    0 comentários

    Ver todos os comentários
    00:00 / 00:00
    Outros vídeos desta música
    Repetir Qualidade Automático
    Outros vídeos desta música
    00:00 / 00:00
    Automático
    Capítulos
    • Início
    • Tocando a música
    • Tocando Introdução
    • Ensinando Introdução - Guitarra Base
    • Ensinando Introdução - Guitarra Solo
    • Acordes da Primeira Parte
    • Tocando Primeira Parte
    • Ensinando Primeira Parte - Guitarra Base
    • Ensinando Primeira Parte - Guitarra Solo
    • Acordes do Primeiro Refrão
    • Tocando Primeiro Refrão
    • Ensinando Primeiro Refrão - Guitarra Base
    • Ensinando Primeiro Refrão - Guitarra Solo
    • Tocando Passagem
    • Ensinando Passagem - Guitarra Base
    • Tocando Segunda Parte
    • Ensinando Segunda Parte - Guitarra Base
    • Ensinando Segunda Parte - Guitarra Solo
    • Tocando Segundo Refrão
    • Ensinando Riff 2 do Refrão
    • Tocando Terceira Parte
    • Ensinando Terceira Parte - Guitarra Solo
    • Tocando Terceiro Refrão e Final
    • Ensinando Riff 3 do Refrão
    • Ensinando Final - Guitarra Base
    • Ensinando Final - Guitarra Solo
    • Encerramento

    Cifra Club Pro

    Aproveite o Cifra Club com benefícios exclusivos e sem anúncios
    Cifra Club Pro
    Aproveite o Cifra Club com benefícios exclusivos e sem anúncios
    OK