Cifra Club

Aprenda

Arlandria

Foo Fighters

Cifra: Simplificada (violão e guitarra)
tom: E
INTRO
|-------------------------------------------------------------------------|
|-------------------------------------------------------------------------|
|-------------------------------------------------------------------------|
|-------------------------------------------------------------------------|
|-----11-9---11--------11-9--------------11-9---11--------11-9---11-------|
|-9-12---------9\--9-12-------12-9---9-12---------9\--9-12---------12b14--|

|----------------------------------------| \
|----------------------------------------|  \
|--4-4-4-4-4-4-4-4-4-4-4-3-3-3-3-3-------|   \ x7
|--6-6-6-2-2-2-2-2-2-2-2-4-4-4-4-4-------|   /
|--4-4-4-0-0-0-0-0-2-2-2-4-4-4-4-4-------|  /
|------------------0-0-0-----------------| /
   . . . . . . . . . . . . . . . .

|-----------------| \
|-------9---------|  \
|--11b13----------|   \ x7
|-----------------|   /
|-----------------|  /
|-----------------| /

1º PARTE

|----------------------------------------| \
|----------------------------------------|  \
|--4-4-4-4-4-4-4-4-4-4-4-3-3-3-3-3-------|   \ x7
|--6-6-6-2-2-2-2-2-2-2-2-4-4-4-4-4-------|   /
|--4-4-4-0-0-0-0-0-2-2-2-4-4-4-4-4-------|  /
|------------------0-0-0-----------------| /
   . . . . . . . . . . . . . . . .


Ain't that the way it always starts.
A simple round of conversation.
Became a shameful equation.
I flipped you station to station.

Hey.     Don't go and turn the other way.
Don't say there's nothin more to... say.
C'mon hear me out.

Hush, hush, settle down.
Button up, don't make a sound.
Shame, shame, go away.
Come again some other day.

C#m                       A
You used to say I couldn't save you enough,
             E                       B             F#
So I've been savin' it up, I started savin' it up.
C#m                         A
And when you said I couldn't give you enough,
          E                         B        C
I started giving you up, I started giving you up.

C#m           F#           A         B     C
You are not me, Arlandria, Arlandria.
C#m               F#          A
You and what army, Arlandria, Arlandria?
B          C
Oh, God you gotta make it stop.

2º PARTE

|----------------------------------------| \
|----------------------------------------|  \
|--4-4-4-4-4-4-4-4-4-4-4-3-3-3-3-3-------|   \ x7
|--6-6-6-2-2-2-2-2-2-2-2-4-4-4-4-4-------|   /
|--4-4-4-0-0-0-0-0-2-2-2-4-4-4-4-4-------|  /
|------------------0-0-0-----------------| /
   . . . . . . . . . . . . . . . .

Chase all of those memories away
Save them all for another day
Don't you remember it was rain that drowned you?

Wait! I wanna see if you could change
I wanna keep all I can take
I feel much better now
Use me up, spit me out
Let me be your hand me down
Fame, fame, go away
Come again some other day

C#m                       A
You used to say I couldn't save you enough,
             E                       B             F#
So I've been savin' it up, I started savin' it up.
C#m                         A
And when you said I couldn't give you enough,
          E                         B        C
I started giving you up, I started giving you up.

C#m           F#           A         B     C
You are not me, Arlandria, Arlandria.
C#m               F#          A
You and what army, Arlandria, Arlandria?
B          C
Oh, God you gotta make it stop.

C#m   A
My sweet Virginia
        E         B            F#
I'm the same as I was in your arms
C#m  A
My sweet Virginia
        E         B             C
I'm the same as I was in your heart

|----------------------------------------| \
|----------------------------------------|  \
|--4-4-4-4-4-4-4-4-4-4-4-3-3-3-3-3-------|   \ x2
|--6-6-6-2-2-2-2-2-2-2-2-4-4-4-4-4-------|   /
|--4-4-4-0-0-0-0-0-2-2-2-4-4-4-4-4-------|  /
|------------------0-0-0-----------------| /

Shame, shame, go away
Come again some other day
Memories keep haunting me
Help me chase them all away
Hush now, settle down
Button up, don't make a sound
Close your eyes, turn around
Help me burn this to the ground
Come now take the blame
That's ok. I'll play the game
I don't care it's all the same
Watch you all go up in flames

Use me up, spit me out
Let me be your hand me down
Fame, fame, go away
Come again some other day

C#m                       A
You used to say I couldn't save you enough,
             E                       B             F#
So I've been savin' it up, I started savin' it up.
C#m                         A
And when you said I couldn't give you enough,
          E                         B        C
I started giving you up, I started giving you up.

C#m           F#           A         B     C
You are not me, Arlandria, Arlandria.
C#m               F#          A
You and what army, Arlandria, Arlandria?
B          C
Oh, God you gotta make it stop.



C#m   A
My sweet Virginia
        E         B            F#
I'm the same as I was in your arms
C#m  A
My sweet Virginia
        E         B             C
I'm the same as I was in your heart!
Composição de Foo Fighters
Colaboração e revisão:
  • Thiago Brogio
3.597 exibições
    • ½ Tom
    • A
    • Bb
    • B
    • C
    • Db
    • D
    • Eb
    • E
    • F
    • F#
    • G
    • Ab
  • Adicionar à lista

    0 comentários

    Ver todos os comentários
    00:00 / 00:00
    Outros vídeos desta música
    Repetir Qualidade Automático
    Outros vídeos desta música
    00:00 / 00:00
    Automático
    Capítulos
    • Início
    • Tocando a música
    • Tocando Introdução
    • Ensinando Introdução - Guitarra Base
    • Ensinando Introdução - Guitarra Solo
    • Acordes da Primeira Parte
    • Tocando Primeira Parte
    • Ensinando Primeira Parte - Guitarra Base
    • Ensinando Primeira Parte - Guitarra Solo
    • Acordes do Primeiro Refrão
    • Tocando Primeiro Refrão
    • Ensinando Primeiro Refrão - Guitarra Base
    • Ensinando Primeiro Refrão - Guitarra Solo
    • Tocando Passagem
    • Ensinando Passagem - Guitarra Base
    • Tocando Segunda Parte
    • Ensinando Segunda Parte - Guitarra Base
    • Ensinando Segunda Parte - Guitarra Solo
    • Tocando Segundo Refrão
    • Ensinando Riff 2 do Refrão
    • Tocando Terceira Parte
    • Ensinando Terceira Parte - Guitarra Solo
    • Tocando Terceiro Refrão e Final
    • Ensinando Riff 3 do Refrão
    • Ensinando Final - Guitarra Base
    • Ensinando Final - Guitarra Solo
    • Encerramento

    Cifra Club Pro

    Aproveite o Cifra Club com benefícios exclusivos e sem anúncios
    Cifra Club Pro
    Aproveite o Cifra Club com benefícios exclusivos e sem anúncios
    OK