Cifra Club

Walk

Foo Fighters

Cifra: Principal
exibições 332.178
Tom: A
Introdução: A5

E|--------7--------------------7------------|
B|---10------10---10------10------10---10---|
G|-9----9-------9-------9----9-------9------|
D|------------------------------------------|
A|------------------------------------------|
E|------------------------------------------|


Primeira Parte:

E|--------7-------------------7-------------|
B|---10------10---10------9------9---10-----|
G|-9----9-------9-------9---9------9--------|
D|------------------------------------------|
A|------------------------------------------|
E|------------------------------------------|

E|--------7-------7-------------7-----------|
B|---10------10-----------10-------10----10-|
G|-7----7-------7------10----10-------10----|
D|------------------------------------------|
A|------------------------------------------|
E|------------------------------------------|

E|--------7-------------------7-------------|
B|---10------10---10------9------9---10-----|
G|-9----9-------9-------9---9------9--------|
D|------------------------------------------|
A|------------------------------------------|
E|------------------------------------------|

E|--------7-------7-------------7--------8--|
B|---10------10-----------10-------10-------|
G|-7----7-------7------10----10-------10----|
D|------------------------------------------|
A|------------------------------------------|
E|------------------------------------------|

A5
   A million miles away
                             
Your signal in the distance
                        
To whom it may concern

A5                    E5
   I think I lost my way
         Bm
Getting good at starting over
       Dm
Every time that I return


Primeiro Refrão:

A5                    E5
   Learning to walk again
     Bm
I believe I've waited long enough
         Dm
Where do I begin?

A5                    E5
   Learning to talk again
           Bm
Can't you see I've waited long enough?
         Dm       A
Where do I begin?


Segunda Parte:

A                      E
  Do you remember the days
    Bm
We built these paper mountains
     Dm
And sat and watched them burn?

A                      E
  I think I found my place
           Bm
Can't you feel it growing stronger?
       (Riff 1)
Little conquerors

(Riff 1 – Guitarra 1)

E|-----------------------------------------------------|
B|-----------------------------------------------------|
G|-7-7-7------9-9-9------10-10-10-------12-12-12\------|
D|--------x-x--------x-x------------x-x----------------|
A|-5-5-5--x-x-7-7-7--x-x--8--8--8---x-x-10-10-10\------|
E|--------x-x--------x-x------------x-x----------------|

(Riff 1 - variação – Guitarra 2)

E|-----------------------------------------------------|
B|-----------------------------------------------------|
G|-10-10-10------10-10-10------10-10-10------10-10-10--|
D|-----------x-x-----------x-x-----------x-x-----------|
A|--8--9--8--x-x--8--8--8--x-x--8--8--8--x-x--8--8--8--|
E|-----------x-x-----------x-x-----------x-x-----------|


Segundo Refrão:

A                    E
  Learning to walk again
     Bm
I believe I've waited long enough
        (Riff 2) 
Where do I begin?

(Riff 2)

E|-----------------------------------------------------|
B|-----------------------------------------------------|
G|-7-7-7------9-9-9------10-10-10-------7-7-7----------|
D|--------x-x--------x-x------------x-x----------------|
A|-5-5-5--x-x-7-7-7--x-x--8--8--8---x-x-5-5-5----------|
E|--------x-x--------x-x------------x-x----------------|

A                   E
  Learning to walk again
     Bm
I believe I've waited long enough
        (Riff 1) 
Where do I begin?


Ponte:

(Riff 3)

E|-----------------------------------------------------|
B|-----------------------------------------------------|
G|---6-6-7-7-7---9-9-9---11---13---14------------------|
D|-x-----------x-------x----x----x---------------------|
A|-x-4-4-5-5-5-x-7-7-7-x--9-x-11-x-12------------------|
E|-x-----------x-------x----x----x---------------------|

 A
Now
                    E
For the very first time
                  F#m
Don't you pay no mind
         D    Dm
Set me free again

     A
You keep alive a moment at a time
                                      
But still, inside, a whisper to a riot
    E
To sacrifice, but knowing to survive
                                       
The first decline another state of mind
    F#m
I'm on my knees, I'm praying for a sign
   D
Forever, whenever
   Dm
I never wanna die

(Riff 4)

E|-----------------------------------------------------|
B|-14-14-14-14-14-14-14-14-----------------------------|
G|-----------------------------------------------------|   (4x)
D|-11-11-11-11-11-11-11-11-----------------------------|
A|-----------------------------------------------------|
E|-----------------------------------------------------|

E|-----------------------------------------------------|
B|-12-12-12-12-12-12-12-12-----------------------------|
G|-----------------------------------------------------|   (4x)
D|--9--9--9--9--9--9--9--9-----------------------------|
A|-----------------------------------------------------|
E|-----------------------------------------------------|

E|-----------------------------------------------------|
B|-14-14-14-14-14-14-14-14-----------------------------|
G|-----------------------------------------------------|   (2x)
D|-11-11-11-11-11-11-11-11-----------------------------|
A|-----------------------------------------------------|
E|-----------------------------------------------------|

E|-----------------------------------------------------|
B|-15-15-15-15-15-15-15-15-----------------------------|
G|-----------------------------------------------------|   (2x)
D|-12-12-12-12-12-12-12-12-----------------------------|
A|-----------------------------------------------------|
E|-----------------------------------------------------|

   A
I never wanna die
                 
I never wanna die
               
I'm on my knees
                 
I never wanna die

     E
I'm dancing on my grave
                           
I'm running through the fire
                 
Forever, whenever
                  
I never wanna die

   F#m
I never wanna leave

I never say goodbye
   D
Forever, whenever
   Dm
Forever, whenever


Terceiro Refrão:

A                    E
  Learning to walk again
     Bm
I believe I've waited long enough
        (Riff 2)       
Where do I begin?

A                    E
  Learning to talk again
           Bm
Can't you see I've waited long enough?
        (Riff 1) 
Where do I begin?


Final:

A                    E
  Learning to walk again
     Bm                           (Riff 1)
I believe I've waited long enough

A                    E
  Learning to talk again
           Bm                          (Riff 1)  A
Can't you see I've waited long enough?

(Riff 5)

E|-----------------------------------------------------|
B|-----------------------------------------------------|
G|-14-14-14------12-12-12------10-10-10------12-12-12--|
D|-----------x-x-----------x-x-----------x-x-----------|
A|-12-12-12--x-x-10-10-10--x-x--8--8--8--x-x-10-10-10--|
E|-----------x-x-----------x-x-----------x-x-----------|
Acordes para:

    0 comentários

      mostrar mais comentários

      Conseguiu tocar?

      67tocaram0ainda não

      Grave um vídeo tocando Walk e mande pra gente!

      00:00 / 00:00
      outros vídeos desta música
      repetirqualidadeautomática
      Outro vídeos desta música
        00:00 / 00:00
        automática
        Capítulos
        • Tocando a música
        • Dicas Iniciais / Equipamentos
        • Acordes da Introdução e Primeira Parte
        • Tocando Introdução e Primeira Parte
        • Ritmo da Introdução e Primeira Parte
        • Introdução
        • Primeira Parte - Primeira Estrofe
        • Primeira Parte - Segunda Estrofe
        • Acordes da Segunda Parte
        • Tocando Refrão e Segunda Parte
        • Ritmo do Refrão e Segunda Parte
        • Riff 1 - Guitarra 1
        • Riff 1 - Guitarra 2
        • Tocando o Segundo Refrão
        • Ritmo do Segundo Refrão
        • Riff 2
        • Acordes da Ponte
        • Tocando a Ponte
        • Ritmo da Ponte
        • Riff 3
        • Riff 4
        • Tocando o Final
        • Riff 5
        • Encerramento
        • Ficha Técnica
        OK