Cifra Club

Aprenda

Walk

Foo Fighters

Cifra: Simplificada (violão e guitarra)
Já pensou em usar uma coleção de roupas do Cifra Club? Responda as perguntas abaixo e nos ajude nessa missão! →
tom: D
Intro: A5 (Abafado)

E|--------7-------------------7-------------------7-------7~------------7------------|
B|---10------10---10~-----9------9---10~-----10------10-----------10-------10----10~-|
G|-9----9-------9-------9---9------9-------7----7-------7------10----10-------10-----|
D|-----------------------------------------------------------------------------------|
A|-----------------------------------------------------------------------------------|
E|-----------------------------------------------------------------------------------|

E|--------7-------------------7-------------------7-------7~------------7--------8~--|
B|---10------10---10~-----9------9---10~-----10------10-----------10-------10--------|
G|-9----9-------9-------9---9------9-------7----7-------7------10----10-------10-----|
D|-----------------------------------------------------------------------------------|
A|-----------------------------------------------------------------------------------|
E|-----------------------------------------------------------------------------------|

A5                  E
A million miles away
     Bm
Your signal in the distance
    D5
To whom it may concern
A5                  E
I think I lost my way
         Bm
Getting good at starting over
       D5
Every time that I return

A5                       E
I'm learning to walk again
          Bm
I believe I've waited long enough
         D5
Where do I begin?
A5                       E
I'm learning to talk again
    Bm
Can't you see I've waited long enough
         D5
Where do I begin?

A5                     E
Do you remember the day
   Bm
We built these people mountains
    D5
And sat and watched them burn

A5                    E
I think I found my pain
          Bm
Can't you feel it growing stronger
       D5
Little conqueror

A5                       E
I'm learning to walk again
          Bm
I believe I've waited long enough
         D5
Where do I begin?
A5                       E
I'm learning to talk again
    Bm
Can't you see I've waited long enough
         D5
Where do I begin?

A5
Now
                   E
For the very first time
                 F#5
Don't you pay no lie
       D5     Dm
Set me free again

    A5
You keep alive a moment at a time
But still inside a whisper to a liar
   E
To sacrifice but knowing to survive
The first to find another state of mind
    F#5
I'm on my knees, I'm waiting for a sign

   D5
Forever, whenever
  A5
I never wanna die
  A5
I never wanna die
  A5
I never wanna die
  A5
I'm on my knees
  A5
Never wanna die

E
Dancing on my grave
E
Running through the fight
E
Forever, whenever
E
Never wanna die

F#5
Never wanna leave
F#5
Never say goodbye

 D5
Forever, whenever
  Dm                    A5
Forever, whenever

  A5                       E
I'm learning to walk again
    Bm
I believe I've waited long enough
         D5
Where do I begin?
A5                       E
I'm learning to talk again
          Bm
Can't you see I've waited long enough
         D5
Where do I begin?

A5                      E
I'm learning to walk again
    Bm
I believe I've waited long enough

A5                       E
I'm learning to talk again
          Bm                           D5 Dm D5 Dm A5
Can't you see I've waited long enough
Composição de Foo Fighters
115.986 exibições
    • ½ Tom
    • A
    • Bb
    • B
    • C
    • Db
    • D
    • Eb
    • E
    • F
    • F#
    • G
    • Ab
  • Adicionar à lista

    0 comentários

    Ver todos os comentários
    00:00 / 00:00
    Outros vídeos desta música
    Repetir Qualidade Automático
    Outros vídeos desta música
    00:00 / 00:00
    Automático
    Capítulos
    • Tocando a música
    • Dicas Iniciais / Equipamentos
    • Acordes da Introdução e Primeira Parte
    • Tocando Introdução e Primeira Parte
    • Ritmo da Introdução e Primeira Parte
    • Introdução
    • Primeira Parte - Primeira Estrofe
    • Primeira Parte - Segunda Estrofe
    • Acordes da Segunda Parte
    • Tocando Refrão e Segunda Parte
    • Ritmo do Refrão e Segunda Parte
    • Riff 1 - Guitarra 1
    • Riff 1 - Guitarra 2
    • Tocando o Segundo Refrão
    • Ritmo do Segundo Refrão
    • Riff 2
    • Acordes da Ponte
    • Tocando a Ponte
    • Ritmo da Ponte
    • Riff 3
    • Riff 4
    • Tocando o Final
    • Riff 5
    • Encerramento
    • Ficha Técnica

    Cifra Club Pro

    Aproveite o Cifra Club com benefícios exclusivos e sem anúncios
    Cifra Club Pro
    Aproveite o Cifra Club com benefícios exclusivos e sem anúncios
    OK