Cifra Club

Wheels

Foo Fighters

Cifra: Principal (violão e guitarra)
Tom: A
[Intro]

E|----------------------------------------------|
B|----------------------------------------------|
G|--------------6-6-6-6-(7)---------------------|  (2x)
D|--------7-----7-7-7-7----7-7--7-6-6-6-7-6-4---|
A|-5--7\9---9-7-4-4-4-4-----------------------7-|
E|----------------------------------------------|

[Primeira Parte]

D5                   A5     F#5  E5
I know what you're thinking
 D5            A5   F#5  E5
We were going down
D5               A5     F#5  E5
I could feel us sinking
D5                A5   F#5  E5
And then i came around

   D5           A5         F#5  E5
And everyone i love before
  D5              A5   F#5  E5
Flashed before my eyes
   D5                A5      F#5  E5
And nothing mattered anymore
   D5               A5  F#5  E5
I looked into the sky

[Pré-Refrão]

        D5                  A5
Well we all want something better than
    F#5                E5
We wish for something new
        D5                  A5
Well we all want something beautiful
 F#5                 E5
Wish for something true
       D5            A5
Being looking for a reason man
 F#5          E5
Something to lose

[Refrão]

           D5         A5  F#5  E5
When the wheels come down
           D5           A5  F#5  E5
When the wheels touch ground
         D5                A5
And you feel like it's all over
          F#5              E5
There's another round for you
           D5         A5  F#5  E5
When the wheels come down

( D5  A5  F#5  E5 )

[Segunda Parte]

 D5                A5     F#5  E5
Now your head is spinning
  D5                A5  F#5  E5
Broken hearts will mend
  D5           A5     F#5  E5
This is our beginning
 D5          A5  F#5  E5
Coming to an end

[Pré-Refrão]

         D5               A5
Well we wanted something better than
    F#5                E5
We wish for something new
          D5               A5
Well you wanted something beautiful
 F#5                 E5
Wish for something true
      D5            A5
Been looking for a reason man
 F#5          E5
Something to lose

[Refrão]

           D5         A5  F#5  E5
When the wheels come down
           D5           A5  F#5  E5
When the wheels touch ground
         D5                A5
And you feel like it's all over
          F#5              E5
There's another round for you
           D5         A5  F#5  E5
When the wheels come down

( D5  A5  F#5  E5 )
( D5  A5  F#5  E5 )

[Solo]

E|--------------------------------------|
B|--------------------------------------|
G|--------------(7)---------------------|
D|---7------7------7-7h9p6--6-7-6-------|
A|-5---5-7----7-9-----------------9-7---|
E|--------------------------------------|

E|--------------------------------------|
B|--------------------------------------|
G|--------------(7)---------------------|
D|---7------7------7-7h9p6--6-7-6-------|
A|-5---5-7----7-9-----------------9-7---|
E|--------------------------------------|

E|--------------------------------------|
B|--------------------------------------|
G|-7--7-7-7h9-6----(7)------------------|
D|--------------9-7---7-7h9-6-6-7-6-4---|
A|------------------------------------7-|
E|--------------------------------------|

E|--------------------------------------|
B|--------------------------------------|
G|--------------(7)---------------------|
D|---7------7------7-7h9p6--6-7-6-------|
A|-5---5-7----7-9-----------------9-7---|
E|--------------------------------------|

[Refrão]

           D5         A5  F#5  E5
When the wheels come down
           D5           A5  F#5  E5
When the wheels touch ground
         D5                A5
And you feel like it's all over
          F#5              E5
There's another round for you
           D5         A5  F#5  E5
When the wheels come down

[Final]  D5 A5 F#5 E5
exibições 110.675
Acordes para:
    Composição: Foo Fighters Colaboração e revisão:
    • Lucas Kappaun
    • Lizandra
    • Jean Sapia

    0 comentários

    mostrar mais comentários

    Conseguiu tocar?

    19 tocaram 0 ainda não

    Grave um vídeo tocando Wheels e mande pra gente!

    00:00 / 00:00
    outros vídeos desta música
    repetir qualidade Automático
    Outros vídeos desta música
    00:00 / 00:00
    Automático
    OK