Cifra Club

Aprenda

Wheels

Foo Fighters

Cifra: Simplificada (violão e guitarra)
Já pensou em usar uma coleção de roupas do Cifra Club? Responda as perguntas abaixo e nos ajude nessa missão! →
tom: D
(intro 2x)
E |--------------------------------------------|
B |--------------------------------------------|
G |--------------6-6-6-6-(7)-------------------|
D |--------7-----7-7-7-7----7-7--7-6-6-7-6-----|
A |-5--7\9---9-7-4-4-4-4-------------------9-7-|
E |--------------------------------------------|

D5                  A5        F#5  E5
I know what you're thinking
D5                  A5        F#5  E5
We were going down
D5                  A5        F#5  E5
i could feel us sinking
D5                  A5        F#5  E5
and then i came around
D5                  A5        F#5  E5
and everyone i love before
D5                  A5        F#5  E5
flashed before my eyes
D5                  A5        F#5  E5
and nothing mattered anymore
D5                  A5        F#5  E5
I looked into the sky

D5                            A5
well we all want something better than
F#5               E5
we wish for something new
D5                            A5
well we all want something beautiful
F#5               E5
wish for something true
D5                            A5
being looking for a reason man
F#5               E5
something to lose

(refrão)
D5                  A5        F#5  E5
when the wheels come down
D5                  A5        F#5  E5
when the wheels touch ground
D5                         A5
and you feel like it's all over
F#5                     E5
there's another round for you
D5                  A5        F#5  E5
when the wheels come down

D5 A5 F#5 E5

D5                    A5        F#5  E5
Now your head is spinning
D5                  A5        F#5  E5
broken hearts will mend
D5                  A5        F#5  E5
this is our beginning
D5             A5        F#5  E5
coming to an end

D5                         A5
well we wanted something better than
F#5                     E5
we wish for something new
D5                         A5
well you wanted something beautiful
F#5                   E5
wish for something true
D5                         A5
been looking for a reason man
F#5             E5
something to lose

D5                  A5        F#5  E5
when the wheels come down
D5                  A5        F#5  E5
when the wheels touch ground
D5                         A5
and you feel like it's all over
F#5                        E5
there's another round for you
D5                  A5        F#5  E5
when the wheels come down

D5 A5 F#5 E5 (2x)

(solo)
E |------------------------------------|
B |------------------------------------|
G |--------------(7)-------------------|
D |---7------7------7-7h9p6--6-7-6-----|
A |-5---5-7----7-9-----------------9-7-|
E |------------------------------------| (2x)

E |--------------------------------------|
B |--------------------------------------|
G |-7--7-7-7h9-6----(7)------------------|
D |--------------9-7---7-7h9-6-6-7-6-4---|
A |------------------------------------7-|
E |--------------------------------------|

E |------------------------------------|
B |------------------------------------|
G |--------------(7)-------------------|
D |---7------7------7-7h9p6--6-7-6-----|
A |-5---5-7----7-9-----------------9-7-|
E |------------------------------------|

D5                  A5        F#5  E5
when the wheels come down
D5                  A5        F#5  E5
when the wheels touch ground
D5                         A5
and you feel like it's all over
F#5                     E5
there's another round for you
D5                  A5        F#5  E5
when the wheels come down
(x2)

D5 A5 F#5 E5
Composição de Foo Fighters
Colaboração e revisão:
  • Gian Fontes
51.471 exibições
    • ½ Tom
    • A
    • Bb
    • B
    • C
    • Db
    • D
    • Eb
    • E
    • F
    • F#
    • G
    • Ab
  • Adicionar à lista

    0 comentários

    Ver todos os comentários
    00:00 / 00:00
    Outros vídeos desta música
    Repetir Qualidade Automático
    Outros vídeos desta música
    00:00 / 00:00
    Automático

    Cifra Club Pro

    Aproveite o Cifra Club com benefícios exclusivos e sem anúncios
    Cifra Club Pro
    Aproveite o Cifra Club com benefícios exclusivos e sem anúncios
    OK