Cifra Club

A Paz

Gilberto Gil

Cifra: Principal (violão e guitarra)
Selo Cifra Club: esta cifra foi revisada para atender aos critérios oficiais da nossa Equipe de Qualidade.
tom: A
[Intro] Bm7(11)  E7  Bm7(11)  E7
        Bm7(11)  E7  Bm7(11)  E7

[Dedilhado - Intro]

   Bm7(11)            E7 
E|------------------------0-------------------|
B|-------0-----0--------0---------------------|
G|-----7-----7--------7-----------------------|
D|---7-----7--------6-------------------------| (4x)
A|--------------------------------------------|
E|-7--------------0---------0-----------------|

[Primeira Parte]

[Dedilhado - Primeira Parte]

Parte 1 de 6  
    A7M(9)         F#m7(11)
E|--------------------------------------------|
B|-------0-----0------2-0----2-0--------------|
G|-----6-----6--------------------------------|
D|---6-----6--------2------2------------------|
A|--------------------------------------------|
E|-5--------------2---------------------------|

Parte 2 de 6
    Bm7(11)        E7
E|--------------------------------------------|
B|-------0-----0--------0-----0---------------|
G|-----7-----7--------7-----7-----------------|
D|---7-----7--------6-----6-------------------|
A|--------------------------------------------|
E|-7--------------0---------------------------|

Parte 3 de 6
    A7M(9)         F#m7(11)
E|--------------------------------------------|
B|-------0-----0------2-0------2-0------------|
G|-----6-----6--------------------------------|
D|---6-----6--------2--------2----------------|
A|--------------------------------------------|
E|-5--------------2---------------------------|

Parte 4 de 6
    Bm7(11)        E7
E|--------------------------------------------|
B|-------0-----0--------0-----0---------------|
G|-----7-----7--------7-----7-----------------|
D|---7-----7--------6-----6-------------------|
A|--------------------------------------------|
E|-7--------------0---------------------------|

Parte 5 de 6
    C7M            Am7
E|-----0-----0--------0------0----------------|
B|-------0-----0--------0------0--------------|
G|---4------4-------5------5------------------|
D|--------------------------------------------|
A|-3------------------------------------------|
E|----------------5---------------------------|

Parte 6 de 6
    Bm7(11)        E7
E|--------------------------------------------|
B|-------0-----0--------0-----0---------------|
G|-----7-----7--------7-----7-----------------|
D|---7-----7--------6-----6-------------------|
A|--------------------------------------------|
E|-7--------------0---------------------------|

Parte 6 de 6 - variação
   Bm7(11)         G7(9)
E|--------------------------------------------|
B|-------0------0--------0-------0------------|
G|-----7------7--------2-------2--------------|
D|---7------7--------3-------3----------------|
A|--------------------------------------------|
E|-7---------------3-------3------------------|

   A7M(9)     F#m7(11)      Bm7(11)  
A paz    invadiu o meu coração 
      E7                 A7M(9) 
De repente me encheu de paz
      F#m7(11)           Bm7(11)
Como se o vento de um tufão
      E7                    C7M
Arrancasse os meus pés do chão
         Am7               Bm7(11)  E7
Onde eu já não me enterro mais

   A7M(9)     F#m7(11)     Bm7(11)
A paz fez um mar da revolução
     E7                A7M(9)
Invadir meu destino a paz 
        F#m7(11)         Bm7(11)
Como aquela grande explosão
        E7              C7M
De uma bomba sobre o Japão 
        Am7(9)          Bm7(11)  G7(9)
Fez nascer um Japão da paz

[Refrão]

[Dedilhado - Refrão]

Parte 1 de 4
   C7M        G/B        Am7(9)     Am7(9)/G
E|--------------------------------------------|
B|-------0----------0----------0----------0---|
G|-----0----------0----------0----------0-----|
D|---2----------0----------2----------2-------|
A|-3----------2----------0--------------------|
E|----------------------------------3---------|

Parte 2 de 4
   F#m7(11)        G7(9)         
E|--------------------------------------------|
B|-------0-----0--------0-------0-------------|
G|-----2-----2--------2-------2---------------|
D|---2-----2--------3-------3-----------------|
A|--------------------------------------------|
E|-2--------------3---------------------------|

Parte 3 de 4
   C7M        G/B        Am7(9)     Am7(9)/G
E|--------------------------------------------|
B|-------0----------0----------0----------0---|
G|-----0----------0----------0----------0-----|
D|---2----------0----------2----------2-------|
A|-3----------2----------0--------------------|
E|----------------------------------3---------|

Parte 4 de 4
   F#m7(11)   B7/F#      Bm7(5-)/F  E7
E|--------------------------------------------|
B|-------0----------0----------0----------0---|
G|-----2----------2----------2----------1-----|
D|---2----------1----------0----------0-------|
A|--------------------------------------------|
E|-2----------2----------1----------0---------|

              C7M  G/B
Eu pensei em mim 
              Am7(9)  Am7(9)/G
Eu pensei em ti  
               F#m7(11)  G7(9)
Eu chorei por nós

             C7M  G/B                                
Que contradição  
             Am7(9)  Am7(9)/G
Só a guerra faz  
               F#m7(11)
Nosso amor em paz

( B7/F#  Bm7(5-)/F  E7 )

[Segunda Parte]

    A7M(9)     F#m7(11)        Bm7(11)
Eu vim, vim parar na beira do cais
           E7             A7M(9)
Onde a estrada chegou ao fim
        F#m7(11)         Bm7(11)
Onde o fim da tarde é lilás
        E7               C7M
Onde o mar arrebenta em mim 
     Am7(9)      Bm7(11)  E7
O lamento de tantos "ais"

( Bm7(11)  E7  Bm7(11)  E7 )
( Bm7(11)  E7  Bm7(11)  E7 )

[Dedilhado - Interlúdio] 

   Bm7(11)            E7 
E|------------------------0-------------------|
B|-------0-----0--------0---------------------|
G|-----7-----7--------7-----------------------|
D|---7-----7--------6-------------------------| (4x)
A|--------------------------------------------|
E|-7--------------0---------0-----------------|

[Primeira Parte]

   A7M(9)     F#m7(11)      Bm7(11)  
A paz    invadiu o meu coração 
      E7                 A7M(9) 
De repente me encheu de paz
      F#m7(11)           Bm7(11)
Como se o vento de um tufão
      E7                    C7M
Arrancasse os meus pés do chão
         Am7               Bm7(11)  E7
Onde eu já não me enterro mais

   A7M(9)     F#m7(11)     Bm7(11)
A paz fez um mar da revolução
     E7                A7M(9)
Invadir meu destino a paz 
        F#m7(11)         Bm7(11)
Como aquela grande explosão
        E7              C7M
De uma bomba sobre o Japão 
        Am7(9)          Bm7(11)  G7(9)
Fez nascer um Japão da paz

[Refrão]

              C7M  G/B
Eu pensei em mim 
              Am7(9)  Am7(9)/G
Eu pensei em ti  
               F#m7(11)  G7(9)
Eu chorei por nós

             C7M  G/B                                
Que contradição  
             Am7(9)  Am7(9)/G
Só a guerra faz  
               F#m7(11)
Nosso amor em paz

( B7/F#  Bm7(5-)/F  E7 )

[Segunda Parte]

    A7M(9)     F#m7(11)        Bm7(11)
Eu vim, vim parar na beira do cais
           E7             A7M(9)
Onde a estrada chegou ao fim
        F#m7(11)         Bm7(11)
Onde o fim da tarde é lilás
        E7               C7M
Onde o mar arrebenta em mim 
     Am7(9)          Bm7(11)  E7
O lamento de tantos "ais"

( Bm7(11)  E7  Bm7(11)  E7 )
( Bm7(11)  E7  Bm7(11)  E7 )

   A7M(9)
A paz  

00:00 / 00:00
Outros vídeos desta música
Repetir
Outros vídeos desta música
491.392 exibições
  • Simplificar cifra
    • ½ Tom
    • A
    • Bb
    • B
    • C
    • Db
    • D
    • Eb
    • E
    • F
    • F#
    • G
    • Ab
  • Adicionar à lista

Afinação da cifra

Afinador online

    0 comentários

    Ver todos os comentários

    Entre para o Cifra Club PRO

    Tenha acesso a benefícios exclusivos no App e no Site

    • Chega de anúncios

    • Mais recursos no app do Afinador

    • Atendimento Prioritário

    • Aumente seu limite de lista

    • Ajude a produzir mais conteúdo

    00:00 / 00:00

    Cifra Club Pro

    Aproveite o Cifra Club com benefícios exclusivos e sem anúncios
    Cifra Club Pro
    Aproveite o Cifra Club com benefícios exclusivos e sem anúncios
    OK