Cifra Club

Afogamento (part. Roberta Sá)

Gilberto Gil

Cifra: Principal (violão e guitarra)
tom: Em
[Intro] G9  Eb7M/G  Cm7M  D5M

G9                             Eb7M/G          Cm7M            D5M
E|--------------------------------------|---------------|------------|------------|
B|--------------------------------------|--6---6---6----|--4--4--4---|--3--3--3---|
G|--2---0---2----2---0---2---4---2---0-|---7---7---7--|---3--3--3--|---3--3--3----|
D|--5---5---5----5---5---5---5---5---5-|---5---5---7---|--1--1--1---|--4--4--4----|
A|--------------------------------------|--6---6---6----|--3--3--3---|--5--5--5---|
E|--3---3---3----3---3---3---3---3---3--|---------------|-----------|-------------|

G9                               G6(9)
Vou correr o risco de afundar de vez
F#7
Sob o peso da insensatez
F6                 E7 F#9+ G9+ G#9+
Já sem poder boiar

G9                                G6(9)
Estarei com alguém nariz contra nariz
F#7
Um afogamento por um triz
F6               E7 F#9+ G9+ G#9+
Tentarei me salvar

          E7             F#9+         G9+       G#9+
E|--------------|---------------|----------------|
B|--0---0---0---|---------------|----------------|
G|--1---1---1--|---2---2---2--|---3--3--3---4----|
D|--0---0---0--|---0---0---0---|--0--0--0---0----|
A|--2---2---2---|---------------|----------------|
E|--0---0---0---|--2---2---2----|--3--3--3---4---|

Am7    
Sempre assim
D/F           E7(9-)        Am7
Sempre que o amor vaza a maré
D/F             E7(9-)        C7M(9)
Vou parar bem longe aonde não dá pé
       Bm7   C7M C#7M D7(9)
Difícil de nadar

G9                            G6(9)
Outro dia um fato aconteceu enfim
F#7
Um golfinho anjo, um boto serafim
F6                 E7 F#9+ G9+ G#9+
Chegou pra me ajudar

Am7    Am     D/F           E7(9-)          Am7
Me agarrei, àquele corpo liso e me deixei levar
Am            E7(9-)        C7M(9)
Ao lado seu sorriso aberto a me guiar
        Bm7     E7(9)  Am7(9)     D7(9)      G9
Então eu relaxei e me entreguei completamente ao mar

( G9  Eb7M/G  Cm7M  D5M )
( G9 G6/9 F#7  F6 E7 F#9+ G9+ G#9+ )

Am7
Sempre assim

( G9  Eb7M/G  Cm7M  D5M )
00:00 / 00:00
Outros vídeos desta música
Repetir
Outros vídeos desta música
Composição de Gilberto Gil / Jorge Bastos Moreno
Colaboração e revisão:
6.733 exibições
    • ½ Tom
    • Am
    • Bbm
    • Bm
    • Cm
    • C#m
    • Dm
    • Ebm
    • Em
    • Fm
    • F#m
    • Gm
    • G#m
  • Adicionar à lista

    0 comentários

    Ver todos os comentários

    Conseguiu tocar?

    6 Tocaram 0 Ainda não

    Grave um vídeo tocando Afogamento (part. Roberta Sá) e nos envie!

    Entre para oCifra Club PRO

    Tenha acesso a benefícios exclusivos no App e no Site

    • Chega de anúncios

    • Prioridade de compra em lançamentos

    • Mais recursos no app do Afinador

    • Atendimento Prioritário

    • Descontos nos produtos Cifra Club

    • Ajude a produzir mais conteúdo

    00:00 / 00:00

    Cifra Club Pro

    Aproveite o Cifra Club com benefícios exclusivos e sem anúncios
    Cifra Club Pro
    Aproveite o Cifra Club com benefícios exclusivos e sem anúncios
    OK