Cifra Club

Drão

Gilberto Gil

Cifra: Principal (violão e guitarra)
Selo Cifra Club: esta cifra foi revisada para atender aos critérios oficiais da nossa Equipe de Qualidade.
tom: C
[Intro]

   C7M                 Dm7(9)
E|-----0---------------0------0-------------|
B|---3---0---0---0---3------8---------------|
G|-5-------2-------5-----10-----------------|
D|------------------------------------------|
A|------------------------------------------|
E|------------------------------------------|

   C7M                 Dm7(9)
E|-----0---------------0------0------0------|
B|---3---0---0---0---3------8------8--------|
G|-5-------2-------5-----10-----10----------|
D|------------------------------------------|
A|------------------------------------------|
E|------------------------------------------|

  C7M                             Fm/C
Drão, o amor da gente é como um grão
                 Am   Am7M
Uma semente de ilusão
                       Am7
Tem que morrer pra germinar
  Ebº              Dm7(9)
Plantar n'algum lugar
             C7M(9)           E7
Ressuscitar no chão nossa semeadura
  Am           Gm7          F#m7
Quem poderá fazer, aquele amor morrer
 F7M          Fm6
Nossa caminhadura
 Fm7M    Fm6   Fm7M      C7M  Dm7(9)
Dura caminhada, pela estrada  escura

  C7M                    Fm/C
Drão não pense na separação
                 Am  Am7M
Não despedace o coração
                     Am7(9)
O verdadeiro amor é vão
Eb°           Dm7(9)            C7M(9)
Estende-se infinito, imenso Monolito
          E7(9-/13)
Nossa arquitetura
  Am7          Gm7          C7(9)
Quem poderá fazer, aquele amor morrer
 F7M           Fm6   Fm7M    Fm6
Nossa caminha dura, cama de tatame
 Fm7M     C7M  Dm7(9)
Pela vida afora

           C7M                           Dm7(9)
E|---------0-------------------------0------------0--|
B|-------3---0---0-------------0---3-----------8-----|
G|----5--------2-----------------5-----------10------|
D|---------------------------------------------------|
A|---------------------------------------------------|
E|---------------------------------------------------|

  C7M                      Fm/C
Drão os meninos são todos sãos
                      Am  Am7M
Os pecados são todos meus
                      Am7
Deus sabe a minha confissão
 Eb°           Dm7(9)
Não há o que perdoar
                      C7M(9)
Por isso mesmo é que há
               E7
De haver mais compaixão
  Am7          Gm7          C7(9)
Quem poderá fazer, aquele amor morrer
 F7M                  Fm6
Se o amor é como um grão
 Fm7M       Fm6
Morre nasce trigo
 Fm7M     C7M  Dm7(9)
Vive morre pão
  C7M  Dm7(9)   C7M
Drão,        Drão
00:00 / 00:00
Outros vídeos desta música
Repetir
Outros vídeos desta música
516.006 exibições
    • ½ Tom
    • A
    • Bb
    • B
    • C
    • Db
    • D
    • Eb
    • E
    • F
    • F#
    • G
    • Ab
  • Adicionar à lista

Afinação da cifra

Afinador online

    0 comentários

    Ver todos os comentários

    Entre para o Cifra Club PRO

    Tenha acesso a benefícios exclusivos no App e no Site

    • Chega de anúncios

    • Mais recursos no app do Afinador

    • Atendimento Prioritário

    • Aumente seu limite de lista

    • Ajude a produzir mais conteúdo

    00:00 / 00:00

    Cifra Club Pro

    Aproveite o Cifra Club com benefícios exclusivos e sem anúncios
    Cifra Club Pro
    Aproveite o Cifra Club com benefícios exclusivos e sem anúncios
    OK