Cifra Club

Aprenda

Refazenda

Gilberto Gil

Cifra: Principal (violão e guitarra)
tom: A
Parte 1 de 2
E|-------------------------------------------------------------|
B|---------------0-------------0-------------------------------|
G|------0------9------0------9---------------------------------|
D|----8------0------6------0-----------------------------------|
A|--0------9------0------9-------------------------------------|
E|-------------------------------------------------------------|

Parte 2 de 2
E|-------------------------------------------------------------|
B|---------------0-------------0-------------------------------|
G|------0------5------0------5---------------------------------|
D|----2------0------3------0-----------------------------------|
A|--0------5------0------5-------------------------------------|
E|-------------------------------------------------------------|


       D
Abaca-teiro
     Asus       D
Aca-taremos teu ato
        Asus        D
Nós também somos do mato
       Asus        D    Asus
Como o pato e o le-ão 
         D
Aguarda-remos
        Asus       D
Brinca-remos no re-gato 
      Asus         D
Até que nos tragam frutos 
       Asus         D  Asus
Teu a-mor, teu cora-ção 
       D
Abaca-teiro 
        Asus         D
Teu re-colhi-mento é justamente 
   Asus   D
O  significado 
     Asus       D   Asus
Da palavra temporão 
           D
Enquanto o tempo 
        Asus       D
Não trouxer teu abacate 
    Asus     D
Amanhecerá tomate 
      Asus      D  Asus
E anoitecerá  mamão

       Dm7
Abaca-teiro
      Am7       Dm7        Am7
Sabes ao que estou me refe-rindo 
        Dm7      Am7        Dm7  Am7
Porque todo tama-rin--do tem 
       Dm7        Am7
O seu agosto azedo
      Dm7         Am7
Cedo, antes que o ja-neiro
     Dm7         Am7    Dm7  Am7
Doce manga venha ser também

       D
Abaca-teiro
       Asus        D
Serás meu parceiro solitário
Asus       D
Nesse itinerário
      Asus      D   Asus
Da le-veza pelo ar
      D
Abaca-teiro
      Asus        D
Saiba que na refa-zenda
         Asus        D
Tu me ensina a fazer renda
             Asus     D    Asus  Dm7
Que eu te ensino a namo-rar

Am7    Dm7       Am7   Dm7 
Refazen-----do tu---do
Am7   Dm7     Am7     Dm7
Refazenda a a a a a a
Am7  Dm7        Am7   Dm7
Refazen-----da to---da
Am7        Dm7     Asus   D   Em7  D  Em7  D  Em7  D
Gua--ri--ro----ba a a a a a a a a

( D  Asus  D  Asus )
( D  Asus  D  Am7 )
( Dm7 Am7 Dm7 Am7 )
( Dm7 Am7 Dm7 Asus )
Composição de Gilberto Gil
Colaboração e revisão:
139.971 exibições
    • ½ Tom
    • A
    • Bb
    • B
    • C
    • Db
    • D
    • Eb
    • E
    • F
    • F#
    • G
    • Ab
  • Adicionar à lista

    0 comentários

    Ver todos os comentários

    Conseguiu tocar?

    11 Tocaram 4 Ainda não

    Grave um vídeo tocando Refazenda e nos envie!

    00:00 / 00:00
    Outros vídeos desta música
    Repetir Qualidade Automático
    Outros vídeos desta música
    00:00 / 00:00
    Automático

    Cifra Club Pro

    Aproveite o Cifra Club com benefícios exclusivos e sem anúncios
    Cifra Club Pro
    Aproveite o Cifra Club com benefícios exclusivos e sem anúncios
    OK