Cifra Club

Whatsername

Green Day

Cifra: Principal (violão e guitarra)
Tom: D
[Intro] D  Bm

 D                         Bm
Tought I ran into you down on the street
  D                         Bm
Then it turned out to only be a dream

G         D                F#            Bm   A
I made a point to burn all of the photographs
  G      D                F#               Bm  A
She went away and then I took a different path
G       D                  F#               Bm  A
I remember the face but I can't recall the name
 G                 A
Now I wonder how Whatsername has been

         D            Bm
E|----------2-------------------|
B|---3---5-----3--0--2---3------|
G|------------------------------|
D|------------------------------|
A|------------------------------|
E|------------------------------|

 D                          Bm
Seems that she disappeared without a trace
 D                        Bm
Did she every marry old what's his face


G         D                F#            Bm   A
I made a point to burn all of the photographs
  G        D              F#               Bm  A
She went away and then I took a different path
G       D                  F#               Bm  A
I remember the face but I can't recall the name
 G                 A
Now I wonder how Whatsername has been

E|-------------------------------------------------------------|
B|-----2h3---3-----2h3---3-----2h3---3-3-3-3-3-3-3-3-3-3-3-3---|
G|---2---------2-----------2---------4-4-4-4-4-4-4-4-4-4-4-4---|
D|-0-------0-----0-----0-----0-------4-4-4-4-4-4-4-4-4-4-4-4---|  
A|-----------------------------------2-2-2-2-2-2-2-2-2-2-2-2---|
E|-------------------------------------------------------------|

[Solo] G  D  F#  Bm  A

 G          D
Remember, whatever
A               D
It seems like forever ago
 G          D
Remember, whatever
A              D
It seems like forever ago

  G         D
The regrets are useless
F#
In my mind
              Bm
She's in my head
   A
I must confess

  G         D
The regrets are useless
    F#
In my mind
             Bm
She's in my head
  A
From so long ago

 G    D          F#        Bm  A
Go.. go.. go... go.. Go.. go

G           A
And in the darkest night
G             A
If my memory serves me right
G           A
I'll never turn back time
 G                  A
Forgetting you but not the time

( D  Bm )

         D            Bm
E|----------2-------------------|
B|---3---5-----3--0--2---3------|
G|------------------------------|
D|------------------------------|
A|------------------------------|
E|------------------------------|

( D )
exibições 56.217
Acordes para:

    0 comentários

    mostrar mais comentários

    Conseguiu tocar?

    22 tocaram 2 ainda não

    Grave um vídeo tocando Whatsername e mande pra gente!

    00:00 / 00:00
    outros vídeos desta música
    repetir qualidade Automático
    Outros vídeos desta música
    00:00 / 00:00
    Automático
    OK