Cifra Club

Aprenda

When I Come Around

Green Day

Cifra: Versão 7 (violão e guitarra)
Tom: B
INTRO

e|----------------------------------|
B|----------------------------------|
G|----------------------------------|   3X
D|-----------7-7-7-7--9-9-9-9--5-5--|
A|--5-5-5-5--5-5-5-5--7-7-7-7--3-3--|
E|--3-3-3-3-------------------------|

riff 1

e|----------------------------------|
B|----------------------------------|
G|----------------------------------|   8X
D|-----------7-7-7-7--9-9-9-9--5-5--|
A|--5-5-5-5--5-5-5-5--7-7-7-7--3-3--|
E|--3-3-3-3-------------------------|

PRÉ-CHOURS

e|------------------------------------|
B|------------------------------------|
G|------------------------------------|  2X
D|-------------------5-5-5-5-5-5-5-5--|
A|--6-6-6-6-6-6-6-6--3-3-3-3-3-3-3-3--|
E|--4-4-4-4-4-4-4-4-------------------|

SOLO

e|--3-------5--------3-----5------3-3-5-5-5-5-5-3-3---------------------|
B|----3---3---3---3----3-----3----3-3-3-3-3-3-3-3-3-------8-------------|
G|------0-------0--------0-----0--0-0-0-0-0-0-0-0-0--5/9--9--5~---------|
D|-----------------------------------------------------------5~---/-----|
A|----------------------------------------------------------------/-----|
E|----------------------------------------------------------------/-----|

FINAL

e|----------------------------------|
B|----------------------------------|
G|----------------------------------|   4X
D|-----------7-7-7-7--9-9-9-9--5-5--|
A|--5-5-5-5--5-5-5-5--7-7-7-7--3-3--|
E|--3-3-3-3-------------------------|

ORDEM
INTRO 3X
riff 1 8X
PRÉ-CHOURS 2X
INTRO 2X
riff 1 8X
PRÉ-CHOURS 2X
INTRO 2X
SOLO
PRÉ-CHOURS 2X
FINAL
Composição de Billie Joe Armstrong / Green Day
Colaboração e revisão:
  • Lucas zatchbeli
2.651 exibições
  • Simplificar cifra
    • ½ Tom
    • A
    • Bb
    • B
    • C
    • Db
    • D
    • Eb
    • E
    • F
    • F#
    • G
    • Ab
  • Adicionar à lista

    0 comentários

    Mostrar mais comentários

    Conseguiu tocar?

    0 Tocaram 0 Ainda não

    Grave um vídeo tocando When I Come Around e mande pra gente!

    00:00 / 00:00
    outros vídeos desta música
    repetir qualidade Automático
    Outros vídeos desta música
    00:00 / 00:00
    Automático
    Capítulos
    • Tocando a Música
    • Apresentação / Equipamentos
    • Configurações do Amplificador
    • Pedais Utilizados
    • Dicas da Música
    • Acordes da Introdução e Versos
    • Tocando Introdução e Primeira Parte
    • Ritmo Introdução e Primeira Parte
    • Acordes do Refrão
    • Tocando Primeiro Refrão
    • Ritmo Refrão
    • Tocando Solo
    • Ensinando Solo
    • Encerramento

    Cifra Club Pro

    Aproveite o Cifra Club com benefícios exclusivos e sem anúncios
    7 dias grátis
    Cifra Club Pro
    Aproveite o Cifra Club com benefícios exclusivos e sem anúncios
    7 dias grátis
    OK