Cifra Club

Aprenda

Êxtase

Guilherme Arantes

Cifra: Versão 3 (violão e guitarra)
Tom: B
Intro:  Ab - Db (4x)

Pré-Verso: Ab - Db (4x) 
(Obs.: Estes arpejos repetem no início dos dois versos e no final)


                     Ab (2x)                      Db (2x)
              e|------------4-----------|-------------9-------------|
              B|--------4---------------|---------9-----------------|
              G|----5-6-----------5-----|------10------------10-----|
              D|--------------8---------|---13----------13----------|
              A|------------------------|---------------------------|
              E|--4-------4-----4---4-4-|--9--------9------9----9-9-|

                     Ab (2x)                          Db (2x)
              e|----6-4---------------------|----14-13-9-------------------|
              B|--------4-------------------|------------9-----------------|
              G|----------5-------8---5-----|---------------11--10---------|
              D|--------------8-------------|-----------------------13-----|
              A|----------------------------|------------------------------|
              E|--4---------4---4---4---4-4-|--4-----------4---4---4---4-4-|


Ab                                 Db    Ab                                Db
   Eu nem sonhava te amar deste jei___to    Hoje nasceu novo sol em meu pei__to
Ab                                    Db    Ab                          Db
   Quero acordar te sentindo ao meu la___do    Viver o êxtase de ser ama__do
Db - Ab/C - Bbm               Bbm7                 Ebm7/9  Ebm9  Ebm
                Espero que a música que eu canto ago__ra
          Ebm/C               F          F7      Bbm  Bbm/Ab  Gb
                Possa expressa__r o meu súbito amo_____________r


Ab                               Db   Ab                                  Db
   Com sua ajuda tranqüila e sere__na    Vou aprendendo que amar vale a pe___na
Ab                                 Db    Ab                                 Db
   Que essa amizade é tão gratifica__nte    Que esse diálogo é muito importa__nte
Db - Ab/C - Bbm               Bbm7                  Ebm7/9 Ebm9 Ebm
                Espero que a música que eu canto ago__ra
          Ebm/C               F          F7      Bbm  Bbm/Ab  Gb
                Possa expressa__r o meu súbito amo_____________r


Ab                                  Db   (4x) (na 2ªx um canon menor, 
   Eu nem sonhava te amar deste jei___to       na 3ª e 4ª um canon maior
                                               repetindo até o final)

Sugestâo de Acordes:
                     Ab/C    x3111x
                     Ebm/C   8x887x
                     Ebm7/9  x6466x
                     Bbm/Ab  4x332x
                     Ebm9    x6886x
Composição de Guilherme Arantes
Colaboração e revisão:
  • Marcelo Minal
11.544 exibições
    • ½ Tom
    • A
    • Bb
    • B
    • C
    • Db
    • D
    • Eb
    • E
    • F
    • F#
    • G
    • Ab
  • Adicionar à lista

    0 comentários

    Mostrar mais comentários

    Conseguiu tocar?

    1 Tocaram 0 Ainda não

    Grave um vídeo tocando Êxtase e mande pra gente!

    00:00 / 00:00
    outros vídeos desta música
    repetir qualidade Automático
    Outros vídeos desta música
    00:00 / 00:00
    Automático

    Cifra Club Pro

    Aproveite o Cifra Club com benefícios exclusivos e sem anúncios
    7 dias grátis
    Cifra Club Pro
    Aproveite o Cifra Club com benefícios exclusivos e sem anúncios
    7 dias grátis
    OK