Cifra Club

Aprenda

Patience

Guns N' Roses

Cifra: V7 (violão e guitarra)
tom: F# (forma dos acordes no tom de G) Afinação: Eb Ab Db Gb Bb Eb
   C   G                    A                  D                C
E|---|-7--------------7---|-----------7------|----------------|----------7-10-7------|
B|-8-|-----10-8----10-----|-10-8--------10-8-|-10-----7-5-----|-8-8-10----------10-8-|
G|---|--------------------|------9-----------|------------7---|----------------------|
D|---|--------------------|------------------|----------------|----------------------|
A|---|--------------------|------------------|----------------|----------------------|
E|---|--------------------|------------------|----------------|----------------------|
   G                 A                            D              C           G
E|-7-8-7-----------|----------------------------|--------------|-----------|-7-------|
B|---------10-8----|-10-8-10-8-10-8---10-----12-|--------------|--10-8-10--|---10-8--|
G|-----------------|----------------9-----------|-11-----9-7---|-----------|---------|
D|-----------------|----------------------------|--------------|-----------|---------|
A|-----------------|----------------------------|--------------|-----------|---------|
E|-----------------|----------------------------|--------------|-----------|---------|
   C             Em                C        G           D
E|-8-7---------|-----------------|--------|-----------|------------------------------|
B|-----10----8-|------8-10-8-----|----5-8-|-5-------8-|-7-8-10-----------------------|
G|-------------|-9-----------9---|--5-----|---7-------|------------------------------|
D|-------------|-----------------|--------|-----------|------------------------------|
A|-------------|-----------------|--------|-----------|------------------------------|
E|-------------|-----------------|--------|-----------|------------------------------|

Riff 1:                      Riff 2:
   D                           D
E|----0-2----3-2----0-2--|  e|--2--2----0-2-3-2-0--2-2--|
B|--3-------------3------|  B|--3--3----3-3-3-3-3--3-3--|
G|-----------------------|  G|--2--2----2-2-2-2-2--2-2--|
D|-----------------------|  G|--0--0---------------0-0--|
A|-----------------------|  A|--------------------------|
E|-----------------------|  E|--------------------------|

Riff 3:                        Riff 4:               Riff 5:
                                 D                     C
E|-------------------------|  e|---------------|    e|---------|
B|----10---10---10---10-10-|  B|---------------|    e|---------|
G|--7----7----7----7-------|  G|--11-12-12\10--|    G|--7------|
D|-------------------------|  D|---------------|    D|----7-5--|
A|-------------------------|  A|---------------|    e|---------|
E|-------------------------|  E|---------------|    e|---------|

Riff 6:                Riff 7:
   G                     D
E|---------|          e|-------/10~-|
B|---------|          B|--7~~-------|
G|--9-7----|          G|------------|
D|------5--|          D|------------|
A|---------|          A|------------|
E|---------|          E|------------|

Intro:

(Violão 1)
   C                    G                    A                    D
E|-0------------------|-3------------------|-0------------------|-2------------------|
B|-1------------------|-0------------------|-2------------------|-3------------------|
G|-0------------------|-0------------------|-2------------------|-2------------------|
D|-2------------------|-0------------------|-2------------------|-0------------------|
A|-3------------------|-2------------------|-0------------------|--------------------|
E|--------------------|-3------------------|--------------------|--------------------|
(Violão 2)
   C                               G
E|-------0-0-----0---------------|---------3-----------------------|
B|-------1--1----3p1--0h1--1p0---|---------3-------1p0-------0-----|
G|-----0-----0---0----0----0---0-|-------0---0---------0-2p0---0---|
D|---2-----------2----2----------|-----0-------0-----------------0-|
A|---3--------------3------------|---2-----------2-----------------|
E|-------------------------------|-3-------------------------------|
   A                                   D
E|------------0----------------------|-2-----2------3p2---0p2-----2-|
B|--------------2----3p2--0h2----2---|-3---3---3----------------3---|
G|-0h2------2-----2-------0h2--2-----|-2-2-------2------2-----------|
D|-0h2----2---------------0h2--------|-0----------------------0-----|
A|-0----0--------------------------0-|------------------------------|
E|-----------------------------------|------------------------------|

(Violão 1)
   C                    G                    A                    D
E|-0------------------|-1------------------|-0------------------|-2------------------|
B|-1---(dedilhado)----|-0---(dedilhado)----|-2---(dedilhado)----|-3---(dedilhado)----|
G|-0------------------|-0------------------|-2------------------|-2------------------|
D|-2------------------|-0------------------|-2------------------|-0------------------|
A|-3------------------|-2------------------|-0------------------|--------------------|
E|--------------------|-3------------------|--------------------|--------------------|
(Violão 2)
       C                               G
E|----------------10----------------------7-8-9-10------------------|
B|----8~---10/12------10/12--8-10-8-10b12-----------10b12--8~~--10--|
G|-7----------------------------------------------------------------|
D|------------------------------------------------------------------|
A|------------------------------------------------------------------|
E|------------------------------------------------------------------|
       A             D
E|---------7/8/9-------10----8----7-\5--7\5--|
B|----10-------------------------------------|
G|-9-------7/8/9----11-----9----7-------7\5--|
D|-------------------------------------------|
A|-------------------------------------------|
E|-------------------------------------------|

Verso 1:

(Violão 1) C G C Em C G D

(Verso 2)
   C                               G                               A
E|---------0-------------------------------------------3----------------5p0--------------------
B|-------1---1-----3p2---0h1-------------3---------------0-------------------2---3p2-----------
G|-----0-------0-----------------------0---0---------------0----------2--------2-------2-------
D|---2-----------2-----2-------------0---------------0-------0------2----------------2---------
A|-3--------------------------5--3-2-----------0---2--------------0----------------------0-2-4-
E|-----------------------------------------------3--------------3------------------------------
                                       Verso 2:
 D                                      C                          G
------2-------------------------------|---------------------------------3------------------------
----3---3---3-------------------------|-------1------3p1---0h1------------3-------1p0------------
--2-------2---------------------------|-----0----0------------------------------------0-2p0------
0-------------0-------7---7-9-7-------|---2--------2-----2------------0--------------------0-2p0-
---*(coiso 1)-----5/7-------------9-0-|-3----------------3----------2---------2p0----------------
--------------------------------------|---------------------------3------------------------------
 A                             D
-------5p0--------------------------2-----3p2---0h2------|
-----------2---3p2--2---0h2---------3-3-------3----------|
-----2-------2--------2-----2-----2-----2-----------2----|
---2----------------------------0---------------------0--|
-0----------------------------0--------------------------|
--------------------------------*(coiso 1)---------------|

Verso 3:

(Violão 1)
   C      G          A              D
E|----------------------------------------|
B|----(base dedilhada)--------------------|
G|----------------------------------------|
D|----------------------------------0-----|
A|----------0-----------------0-2-4-------|
E|------------3---------------------------|
(Violão 2)
   C                G                          A               D
E|---0-0---------------------------------------------------------------------------------------|
B|---1-1-3p1--0p1--------0----1p0------------------3p2-----------------------------------------|
G|---0-0----------------0---------0-2p0-----------2--------------------------------------------|
D|-2--------2---------------------------0-2p0---2-------------5-7-5-3-5-3-1-3-/7-7-9-7-9-7-5-3-|
A|-3----------------2-------------------------0------------------------------------------------|
E|------------------3--------------------------------------------------------------------------|

Verso 4:
   C                       G                A               D
E|------0---------------------0---------0--------0------------2-----3p2---0p1-----|
B|------1----3p1---0h1-----3----3---------3----2----------------3-------3---------|
G|---0-----0-----0--------------------0---------------------------2-----------2---|
D|--2------------------0------------------------------------0-------------------0-|
A|-3---------------------3-2------0---------0---------0-2-4-----------------------|
E|----------------------------------3---------------------------------------------|

Verso 1:
C
  Shed a tear 'cause I'm missin' you
G
  I'm still alright to smile
A                                D      (Riff 1)
  Girl, I think about you every day now

Verso 2:
C
  Was a time when I wasn't sure
       G
But you set my mind at ease
A                                 D
  There is no doubt You're in my heart now

Refrão 1:
C               G
  Said, woman, take it slow
       C               Em
It'll work itself out fine
C               G             D       (Riff 2)
All we need is just a little patience
C               G
  Said, sugar, make it slow
        C             Em
And we come together fine
C               G             D       (Riff 2)
All we need is just a little patience
E|---------------------10---------------------14--|
B|------------------------------------------------|
G|------------------------------------------------|
D|------------------------------------------------|
A|------------------------------------------------|
E|------------------------------------------------|
      Patience...  /       uhhhuuhhuuhu / uh yeah

Verso 3:
C
  I sit here on the stairs
          G
'Cause I'd rather be alone
   A
If I can't have you right now
      D
I'll wait, dear

Verso 4:
C
  Sometimes I get so tense
       G
But I can't speed up the time
     A
But you know, love
                              D
There's one more thing to consider

Refrão 2:
C               G
  Said, woman, take it slow
      C                  Em
And things will be just fine
 C                G             D       (Riff 2)
You and I'll just use a little patience
C               G
  Said, sugar, take the time
            C                   Em
'Cause the lights are shining bright
 C                 G               D      (Riff 2)
You and I've got what it takes to make it,
E|------------------------------------10-----------------------14-------|
B|----------------------------------------------------------------------|
G|----------------------------------------------------------------------|
D|----------------------------------------------------------------------|
A|----------------------------------------------------------------------|
E|----------------------------------------------------------------------|
   We won't fake it / I'll never break it / 'cause I can't take it

Solo:
   D      C                G                     C                  Em
E|-8p7-|-8-----8/10--8---|-----------------8p7-|-8-------8/10---10/12~~---8p7-|
B|-----|---------------10/12--12---8-8~--------|------------------|-----------|
G|-----|-----------------|---------------------|------------------|-----------|
D|-----|-----------------|---------------------|------------------|-----------|
A|-----|-----------------|---------------------|------------------|-----------|
E|-----|-----------------|---------------------|------------------|-----------|
   C               G                  D                                   C
E|-8---8/10--8---|----------------10/12-10-10---12/14--12-10h12-10~~----|----------------|
B|-------------10/12-12-10---8--8---|-----------------------------------|--5-8-----------|
G|---------------|------------------|----------------------------------7b9-----9r7--5-7--|
D|---------------|------------------|-----------------------------------|---------------7|
A|---------------|------------------|-----------------------------------|----------------|
E|---------------|------------------|-----------------------------------|----------------|
   G                  C                Em                          C
E|------------------|-----------------|---------------------------|----------------------|
B|------------------|----5-8----------|-----8-10b12r10--8----8-10-|-10b12---10--8-10---8-|
G|---4-7-----------7b9-------9r7--5--7/9~-----------------9-------|------------------9---|
D|b9------7b9--5~---|-----------------|---------------------------|----------------------|
A|------------------|-----------------|---------------------------|----------------------|
E|------------------|-----------------|---------------------------|----------------------|
   G                  D             Riff 2 - 4x
E|------------------|-------------|------------------------------------------------------------|
B|-10b-8---8-10-8-10/12--10~-10~~-|------------------------------7b8-7~-----------------7b8-7~-|
G|-------9----------|-------------|--11-9---7/9-7----------------------------------------------|
D|------------------|-------------|----------------9p7-----7-------------9p7-----7-------------|
A|------------------|-------------|--------------------7h8---5~--------------7h8---5~----------|
E|------------------|-------------|------------------------------------------------------------|

(Parada)

A partir de agora, até o final da música o vilão 1 faz a base, e o 2 faz o que está nas tablaturas.

   D     D/F#  G     D      D/F#  G
E|-----|-----|-----|-10---|-----|-15---|
B|-----|-----|-----|------|-----|------|
G|-----|-----|-----|------|-----|------|
D|-----|-----|-----|------|-----|------|
A|-----|-----|-----|------|-----|------|
E|-----|-----|-----|------|-----|------|
   D              D/F#                  G
E|-14-14-14\--12-12--10--10\--8-8--7-7-7p5-5-5\--3-3--3p2--3p2--3p2--|
B|-------------------------------------------------------------------|
G|-14-14-14\--12-12--11--11\--9-9--7-7-7---7-7\--4-4-----------------|
D|-------------------------------------------------------------------|
A|-------------------------------------------------------------------|
E|-------------------------------------------------------------------|
                            little patience                    hummm
   D       D/F#     G                             D       D/F#           G
E|-2-----|--------|-----------------------------|-------|--------------|--------------------|
B|-------|--------|-8--8-10-8--------10----10-8-|-7~----|-5-7-8-10-8-7-|-8---8\--7\-5\-3\---|
G|-------|--------|-----------9-7---------------|-------|--------------|--------------------|
D|-------|--------|-----------------------------|-------|--------------|--------------------|
A|-------|--------|-----------------------------|-------|--------------|--------------------|
E|-------|--------|-----------------------------|-------|--------------|--------------------|
  yeaaah    uh uh  yeah             need a little patience         yeaa...aah   just a little
   D       D/F#               G                 D        D/F#             G
E|-------|------------------|-------------5/7-|-10~----|----------------|----------|
B|-------|-5b7-10-8-7--7--7-|-8~--------8-----|--------|--5-7-8/10~-8-7-|-8~-------|
G|-------|------------------|-----------------|--------|----------------|----------|
D|-------|------------------|-----------------|--------|-*(entra outro)-|----------|
A|-------|------------------|-----------------|--------|----------------|----------|
E|-------|------------------|-----------------|--------|----------------|----------|
  patience             yeaa...aah      so more patience

Backing vocal:

Need some patience,
Could use some patience, yeah
Gotta have some patience, yeah
All it takes is patience,
Just a little patience
Is all you need

Outro:

D                       D/F#           G
  I been walkin' the streets at night
Just tryin' to get it right
D                      D/F#
  Hard to see with so many around
      G
You know I don't like Being stuck in the crowd
           D (Riff 3)
And the streets don't change
     D/F#          G
But baby the name
                          (Riff 3)
I ain't got time for the game
          D *(Riff 4)
'Cause I need you
 D/F#              G
Yeah, yeah, but need you
       C (Riff 5 - 4x)
Oo, I need you
         G (Riff 6) (Riff 5 - 4x)
Whoa, I need you
              D (Riff 7)  G
Oo, all this time
E|-3p2-----------------------14-|
B|-----3------------------------|
G|-------2----------------------|
D|---------5p4----(violão 1-----|
A|-------------5---toca um D)---|
E|---------------5--------------|

Ahhhhh!!
Composição de Axl Rose / Duff McKagan / Izzy Stradlin / Slash / Steven Adler
498.273 exibições
  • Simplificar cifra
    • ½ Tom
    • A
    • Bb
    • B
    • C
    • Db
    • D
    • Eb
    • E
    • F
    • F#
    • G
    • Ab
  • Adicionar à lista

    0 comentários

    Ver todos os comentários
    00:00 / 00:00
    Outros vídeos desta música
    Repetir Qualidade Automático
    Outros vídeos desta música
    00:00 / 00:00
    Automático

    Cifra Club Pro

    Aproveite o Cifra Club com benefícios exclusivos e sem anúncios
    Cifra Club Pro
    Aproveite o Cifra Club com benefícios exclusivos e sem anúncios
    OK