Cifra Club

Aprenda

Dr. Love

Hardline

Cifra: Principal (violão e guitarra)
Tom: E
(Guitar 1)

(intro)

E|-------------------|------------------------|-----------------------|--0--------------0-------|
B|-------------------|-------3----------------|-------3---------------|-----3--2--0--L-----3----|
G|-------------------|----------6----L--------|----------6------------|-------------------------|
D|-------------------|------------------------|-----------------------|-------------------------|
A|-------------------|------------------------|-----------------------|-------------------------|
E|-------------------|--3---------------------|--3--------------------|-------------------------|

----------------------|------------------------|-----------------------|-----------------0-------|
-------------0--------|-------3----------------|-------3---------------|--0--3--2--0--L-----3----|
--2----2--1-----------|----------6----L--------|----------6------------|-------------------------|
----------------------|------------------------|-----------------------|-------------------------|
----------------------|------------------------|-----------------------|-------------------------|
----------------------|--3---------------------|--3--------------------|-------------------------|

----------------------|-------------------|-------------------|-------------------|
----------------------|-------------------|-------------------|-------------------|
--2----2-----1--------|--L----------------|-------------------|-------------------|
----------2-----------|-------------------|-------------------|-------------------|
----------------------|-------------------|-------------------|-------------------|
----------------------|-------------------|-------------------|-------------------|

-----0----------------------|-----0------------------------------|-----0----------------------|
-----0----------------------|-----0------------------------------|-----0----------------------|
----------------------------|-------------------------------7~---|----------------------------|
--------------5--7----------|--------------------------5h-6------|--------------5--7----------|
--------------5--7----------|--------------------5--7------------|--------------5--7----------|
--0-----0--0----------3~----|--0--------5h-6h-7------------------|--0-----0--0----------3~----|

-----0----------------------|-----0----------------------|-----0------------------------------|
-----0----------------------|-----0----------------------|-----0------------------------------|
----------------9-----7~----|----------------------------|-------------------------------7~---|
-----------7s-9----7--------|--------------5--7----------|--------------------------5h-6------|
----------------------------|--------------5--7----------|--------------------5--7------------|
--0-------------------------|--0-----0--0----------3~----|--0--------5h-6h-7------------------|

                                                    (verso 1)
-----0---------------------|-----0------------------|-----0----------------------|
-----0---------------------|-----0------------------|-----0----------------------|
---------------------------|-----------7--9---------|----------------------------|
--------------5--7---------|-----------7--9---------|--------------5--7----------|
--------------5--7---------|-----------5--7---------|--------------5--7----------|
--0-----0--0----------3----|--0---------------------|--0-----0--0----------3~----|

-----0------------------------------|-----0----------------------|-----0----------------------|
-----0------------------------------|-----0----------------------|-----0----------------------|
-------------------------------7~---|----------------------------|----------------9-----7~----|
--------------------------5h-6------|--------------5--7----------|-----------7s-9----7--------|
--------------------5--7------------|--------------5--7----------|----------------------------|
--0--------5h-6h-7------------------|--0-----0--0----------3~----|--0-------------------------|

-----0----------------------|-----0------------------------------|-----0----------------------|
-----0----------------------|-----0------------------------------|-----0----------------------|
----------------------------|-------------------------------7~---|----------------------------|
--------------5--7----------|--------------------------5h-6------|--------------5--7----------|
--------------5--7----------|--------------------5--7------------|--------------5--7----------|
--0-----0--0----------3~----|--0--------5h-6h-7------------------|--0-----0--0----------3~----|

                            (pré-refrão)
-----0----------------------|-------------------------|-----------------------|
-----0----------------------|----------5--L----L------|--7--------5--L--------|
----------------9-----7~----|--4----4--4--L----L------|--6--------4--L--------|
-----------7s-9----7--------|--4----4--2--L----L------|--4--------2--L--------|
----------------------------|--2----2--2--L----L--x-x-|-------x-x-2--L--------|
--0-------------------------|---------------------x-x-|-------x-x-------------|

---------------------------|----------------------|-------------------------|
----------5--L----L--------|----------------------|----------5--L----L------|
--4----4--4--L----L--------|--7-------9--L--------|--4----4--4--L----L------|
--4----4--2--L----L--------|--7-------9--L--------|--4----4--2--L----L------|
--2----2--2--L----L--------|--5-------7--L--------|--2----2--2--L----L--x-x-|
---------------------0--0--|-------0--------------|---------------------x-x-|
 
                                                                          (refrão 1)
-----------------------|---------------------------|----------------------|--3--3------------------|
--7--------5--L--------|----------5--L----L--------|----------------------|--3--3------------------|
--6--------4--L--------|--4----4--4--L----L--------|--7--------9----------|--0--0-------7--7-------|
--4--------2--L--------|--4----4--2--L----L--------|--7--------9----------|--0--0-------7--7-------|
-------x-x-2--L--------|--2----2--2--L----L--------|--5--------7----------|-------------5--5-------|
-------x-x-------------|---------------------0--0--|----------------0--2--|--3--3------------------|

------------------------|--3--3------------------|------------------------|--3--3------------------|
------------------------|--3--3------------------|------------------------|--3--3------------------|
--2--2-------2--2-------|--0--0-------7--7-------|--2----------2------2---|--0--0-------7--7-------|
--2--2-------2--2-------|--0--0-------7--7-------|--2----------2------2---|--0--0-------7--7-------|
--0--0-------0--0-------|-------------5--5-------|--0----------0------0---|-------------5--5-------|
------------------------|--3--3------------------|-------3b---------3-----|--3--3------------------|

------------------------|--3--3------------------|---------------------|--------------------|
------------------------|--3--3------------------|---------------------|--------------------|
--2--2-------2--2-------|--0--0-------7--7-------|----2---L------------|--L-----------------|
--2--2-------2--2-------|--0--0-------7--7-------|----2---L------------|--L-----------------|
--0--0-------0--0-------|-------------5--5-------|----0---L------------|--L-----------------|
------------------------|--3--3------------------|--3------------------|--------------------|

(verso 2)
-----0----------------------|-----0------------------------------|-----0----------------------|
-----0----------------------|-----0------------------------------|-----0----------------------|
----------------------------|-------------------------------7~---|----------------------------|
--------------5--7----------|--------------------------5h-6------|--------------5--7----------|
--------------5--7----------|--------------------5--7------------|--------------5--7----------|
--0-----0--0----------3~----|--0--------5h-6h-7------------------|--0-----0--0----------3~----|

-----0----------------------|-----0----------------------|-----0------------------------------|
-----0----------------------|-----0----------------------|-----0------------------------------|
----------------9-----7~----|----------------------------|-------------------------------7~---|
-----------7s-9----7--------|--------------5--7----------|--------------------------5h-6------|
----------------------------|--------------5--7----------|--------------------5--7------------|
--0-------------------------|--0-----0--0----------3~----|--0--------5h-6h-7------------------|

                                                         (pré-refrão)
-----0----------------------|-----0----------------------|-------------------------|
-----0----------------------|-----0----------------------|----------5--L----L------|
----------------------------|----------------9-----7~----|--4----4--4--L----L------|
--------------5--7----------|-----------7s-9----7--------|--4----4--2--L----L------|
--------------5--7----------|----------------------------|--2----2--2--L----L--x-x-|
--0-----0--0----------3~----|--0-------------------------|-------x-------------x-x-|

-----------------------|---------------------------|----------------------|
--7--------5--L--------|----------5--L----L--------|----------------------|
--6--------4--L--------|--4----4--4--L----L--------|--7-------9--L--------|
--4--------2--L--------|--4----4--2--L----L--------|--7-------9--L--------|
-------x-x-2--L--------|--2----2--2--L----L--------|--5-------7--L--------|
-------x-x-------------|---------------------0--0--|-------0--------------|

-------------------------|-----------------------|---------------------------|
----------5--L----L------|--7--------5--L--------|----------5--L----L--------|
--4----4--4--L----L------|--6--------4--L--------|--4----4--4--L----L--------|
--4----4--2--L----L------|--4--------2--L--------|--4----4--2--L----L--------|
--2----2--2--L----L--x-x-|-------x-x-2--L--------|--2----2--2--L----L--------|
---------------------x-x-|-------x-x-------------|---------------------0--0--|

                      (refrão 2)
----------------------|--3--3------------------|------------------------|--3--3------------------|
----------------------|--3--3------------------|------------------------|--3--3------------------|
--7--------9----------|--0--0-------7--7-------|--2--2-------2--2-------|--0--0-------7--7-------|
--7--------9----------|--0--0-------7--7-------|--2--2-------2--2-------|--0--0-------7--7-------|
--5--------7----------|-------------5--5-------|--0--0-------0--0-------|-------------5--5-------|
----------------0--2--|--3--3------------------|------------------------|--3--3------------------|

------------------------|--3--3------------------|------------------------|--3--3------------------|
------------------------|--3--3------------------|------------------------|--3--3------------------|
--2----------2------2---|--0--0-------7--7-------|--2--2-------2--2-------|--0--0-------7--7-------|
--2----------2------2---|--0--0-------7--7-------|--2--2-------2--2-------|--0--0-------7--7-------|
--0----------0------0---|-------------5--5-------|--0--0-------0--0-------|-------------5--5-------|
-------3b---------3-----|--3--3------------------|------------------------|--3--3------------------|

(ponte)
-----------------------------------------|-----------------------------------------|
-----------------------------------------|-----------------------------------------|
-----------------------------------------|-----------------------------------------|
--------------3--------------3--------3--|--------------5--------------5--------5--|
--------------3--------------3--------3--|--------------5--------------5--------5--|
--1--1--1--1--1--1--1--1--1--1--1--1--1--|--3--3--3--3--3--3--3--3--3--3--3--3--3--|

-----------------------------------------|----------------------|
-----------------------------------------|----------------------|
-----------------------------------------|--2-------------------|
--------------3--------------3--------3--|--2-------------------|
--------------3--------------3--------3--|--0----2----3----5----|
--1--1--1--1--1--1--1--1--1--1--1--1--1--|----------------------|

-----------------------------------------|-----------------------------------------|
-----------------------------------------|-----------------------------------------|
-----------------------------------------|-----------------------------------------|
--------------3--------------3--------3--|--------------5--------------5--------5--|
--------------3--------------3--------3--|--------------5--------------5--------5--|
--1--1--1--1--1--1--1--1--1--1--1--1--1--|--3--3--3--3--3--3--3--3--3--3--3--3--3--|

                                       (solo)
-------------------|-------------------|-----0----------------------|-----0----------------|
--8----------------|--7----------------|-----0----------------------|-----0----------------|
--7----------------|--7----------------|----------------------------|----------------------|
--7----------------|--7----------------|--------------5--7----------|----------------------|
--5----------------|--5----------------|--------------5--7----------|----------------------|
-------------------|-------------------|--0-----0--0----------3~----|--0-------------------|

-----0----------------------|-----0----------------|-----0----------------------|
-----0----------------------|-----0----------------|-----0----------------------|
----------------------------|----------------------|----------------------------|
--------------5--7----------|----------------------|--------------5--7----------|
--------------5--7----------|----------------------|--------------5--7----------|
--0-----0--0----------3~----|--0-------------------|--0-----0--0----------3~----|

-----0----------------|-----0----------------------|-----------------------|
-----0----------------|-----0----------------------|-----------------------|
----------------------|----------------------------|-----2--L-----4--------|
----------------------|--------------5--7----------|-----2--L-2---4--------|
----------------------|--------------5--7----------|-----0--L-2---2--------|
--0-------------------|--0-----0--0----------3~----|----------0------------|

                                                    (refrão 3)
--------------------------|-------------------------|--3--3------------------|
--------------------------|-------------------------|--3--3------------------|
--5-----5-----5--5--5--5--|----7-7--7----7----------|--0--0-------7--7-------|
--5-----5-----5--5--5--5--|----7-7--7----7----------|--0--0-------7--7-------|
--3--3--3--3--3--3--3--3--|--5-5-5--5----5----------|-------------5--5-------|
--------------------------|-------------------0--2--|--3--3------------------|

------------------------|--3--3------------------|------------------------|--3--3------------------|
------------------------|--3--3------------------|------------------------|--3--3------------------|
--2--2-------2--2-------|--0--0-------7--7-------|--2----------2------2---|--0--0-------7--7-------|
--2--2-------2--2-------|--0--0-------7--7-------|--2----------2------2---|--0--0-------7--7-------|
--0--0-------0--0-------|-------------5--5-------|--0----------0------0---|-------------5--5-------|
------------------------|--3--3------------------|-------3b---------3-----|--3--3------------------|

------------------------|--3--3------------------|-----------------------|--3--3------------------|
------------------------|--3--3------------------|-----------------------|--3--3------------------|
--2--2-------2--2-------|--0--0-------7--7-------|----2---2--------------|--0--0-------7--7-------|
--2--2-------2--2-------|--0--0-------7--7-------|----2---2--------------|--0--0-------7--7-------|
--0--0-------0--0-------|-------------5--5-------|----0---0--------------|-------------5--5-------|
------------------------|--3--3------------------|--3--------------0--2--|--3--3------------------|

------------------------|--3--3------------------|------------------------|--3--3------------------|
------------------------|--3--3------------------|------------------------|--3--3------------------|
--2--2-------2--2-------|--0--0-------7--7-------|--2----------2------2---|--0--0-------7--7-------|
--2--2-------2--2-------|--0--0-------7--7-------|--2----------2------2---|--0--0-------7--7-------|
--0--0-------0--0-------|-------------5--5-------|--0----------0------0---|-------------5--5-------|
------------------------|--3--3------------------|-------3b---------3-----|--3--3------------------|

------------------------|--3--3------------------|---------------------|-----------------------|
------------------------|--3--3------------------|---------------------|-----------------------|
--2--2-------2--2-------|--0--0-------7--7-------|----2---2------------|--L--------------------|
--2--2-------2--2-------|--0--0-------7--7-------|----2---2------------|--L--------------------|
--0--0-------0--0-------|-------------5--5-------|----0---0------------|--L--------------------|
------------------------|--3--3------------------|--3------------------|---------------/12\----|

(outro)
-----0----------------------|-----0------------------------------|-----0----------------------|
-----0----------------------|-----0------------------------------|-----0----------------------|
----------------------------|-------------------------------7~---|----------------------------|
--------------5--7----------|--------------------------5h-6------|--------------5--7----------|
--------------5--7----------|--------------------5--7------------|--------------5--7----------|
--0-----0--0----------3~----|--0--------5h-6h-7------------------|--0-----0--0----------3~----|

-----0----------------------|-----0----------------------|-----0------------------------------|
-----0----------------------|-----0----------------------|-----0------------------------------|
----------------9-----7~----|----------------------------|-------------------------------7~---|
-----------7s-9----7--------|--------------5--7----------|--------------------------5h-6------|
----------------------------|--------------5--7----------|--------------------5--7------------|
--0-------------------------|--0-----0--0----------3~----|--0--------5h-6h-7------------------|

-----0----------------------|-----0----------------------|-----0----------------------|
-----0----------------------|-----0----------------------|-----0----------------------|
----------------------------|----------------9-----7~----|----------------------------|
--------------5--7----------|-----------7s-9----7--------|--------------5--7----------|
--------------5--7----------|----------------------------|--------------5--7----------|
--0-----0--0----------3~----|--0-------------------------|--0-----0--0----------3~----|

-----0------------------------------|-----0----------------------|-----0----------------------|
-----0------------------------------|-----0----------------------|-----0----------------------|
-------------------------------7~---|----------------------------|----------------9-----7~----|
--------------------------5h-6------|--------------5--7----------|-----------7s-9----7--------|
--------------------5--7------------|--------------5--7----------|----------------------------|
--0--------5h-6h-7------------------|--0-----0--0----------3~----|--0-------------------------|

-----0----------------------|-----0------------------------------|
-----0----------------------|-----0------------------------------|
----------------------------|-------------------------------7~---|
--------------5--7----------|--------------------------5h-6------|
--------------5--7----------|--------------------5--7------------|
--0-----0--0----------3~----|--0--------5h-6h-7------------------|

-----0---------------------------------------------------------||
-----0---------------------------------------------------------||
---------------------------------------------------------------||
--------------5--7---------------------------------------------||
--------------5--7---------------------------------------------||
--0-----0--0----------3~---------------------------------------||

(guitar 2)

(intro)
E|-------------------|-----15---------------------------------------14-|
B|-------------------|---------15--14~--------15h-17p-15-14h-15h-17----|
G|-------------------|-------------------------------------------------|
D|-------------------|-------------------------------------------------|
A|-------------------|-------------------------------------------------|
E|-------------------|-------------------------------------------------|

-----------------------------------------|-----------------------------------------------|
--17br-----L---Lp-15\-14-14~-----L-------|--15b-----L---Lp-12-14b----14p-12----12--------|
------------------------------------15\--|----------------------------------14----14p-13-|
------------------------------------15\--|-----------------------------------------------|
-----------------------------------------|-----------------------------------------------|
-----------------------------------------|-----------------------------------------------|

-------------------------------------------|-----15--------------------------------14-|
--11---------------------------------------|---------15--14~--------15h-17p-15-17b----|
-----14-11--------------11-----------------|------------------------------------------|
-----------14-12-----14----14-12-11--------|------------------------------------------|
------------------11-----------------------|------------------------------------------|
-------------------------------------------|------------------------------------------|

-------------------------------------|------------------12-16p-12----12--------------------------|
--17b-----Lpb---Lpb-15-14--L~--------|--15b~-----Lpb~-------------15----15p-12-15p-12----12------|
-------------------------------------|------------------------------------------------14----14b--|
-------------------------------------|-----------------------------------------------------------|
-------------------------------------|-----------------------------------------------------------|
-------------------------------------|-----------------------------------------------------------|

----------------------------------------------------------------------------------|
--15p-12----12----12----------10p-9-----------------------------------------------|
---------14----13----11p-9----------11p-9-11p-9-----------------------------------|
---------------------------12-------------------12-12p-11p-9-12p-11p-9------------|
-----------------------------------------------------------------------11s-7s-5b--|
----------------------------------------------------------------------------------|

-------------------|--------------------|-------------------|-------------------|
-------------------|--------------------|-------------------|-------------------|
-------------------|--------------------|-------------------|-------------------|
-------------------|--------------------|-------------------|-------------------|
--L----------------|--L~----------------|--L----------------|-------------------|
-------------------|--------------------|-------------------|-------------------|

                                       (solo)
E|------------------------------------|----------12--------14b---L----------15g17b---|
B|--------------------12-15p-12----12-|--15b~-------15p-12---------------------------|
G|----------------14b-----------14----|----------------------------------------------|
D|------------------------------------|----------------------------------------------|
A|------------------------------------|----------------------------------7/----------|
E|------------------------------------|-----------------------------12\--------------|

---L--15b---------------------------|------------------------------------------------------|
-----------17~----15-17--Lb--17~----|--15-17--------------------------------------------12-|
------------------------------------|--------14~--14-14-12----12-13-14-14-14p-13p-12-14----|
------------------------------------|----------------------14------------------------------|
------------------------------------|------------------------------------------------------|
------------------------------------|------------------------------------------------------|

-----------------------------------------------|------------------------------------------|
-----------------------------------------------|-----------12--14br-----------------------|
-----------------------------------------------|-----12-14-------------14-12b-------------|
--16-16-14-12-14-------------------------------|--------------------------------14~---L\--|
-----------------14S-12S-10-12-------12--------|------------------------------------------|
-------------------------------10s-9----10~----|------------------------------------------|

-------------------------------------------------------------------------------------|
-------------------------------------------------------------------------------------|
-------------------------------------------------------------------------------------|
--17p-14-16b--Lpbr--Lp-14h-16p-14-12h-14p-12----12-----------------------------------|
---------------------------------------------14----14-12-14-12g14-14-10b--L---L--L\--|
-------------------------------------------------------------------------------------|

--------------------------------------|
--------------------------------------|
-----------------------7-9\~------9-9-|
---------2~----5b-7h-9--------5g9-----|
-----5b-------------------------------|
--------------------------------------|

----------------------------------------------------------------------------|
----------------------------------------------------------15h-17p-15----17--|
--12p-9-11b-9h-11p-9----9--------------7(9)--9(12)--12g16------------16-----|
---------------------12---12p-9---------------------------------------------|
--------------------------------12-12b--------------------------------------|
----------------------------------------------------------------------------|

-----------------------------17-19p-17----17-|---------20b--L---L~----20pb--20pb--20pb--20b~----|
--19b-----L----15-17-17S--20-----------20----|--20p-17------------------------------------------|
---------------------------------------------|--------------------------------------------------|
---------------------------------------------|--------------------------------------------------|
---------------------------------------------|--------------------------------------------------|
---------------------------------------------|--------------------------------------------------|

(outro)
E|------------------------------|-------------------|-------------------------------------------|
B|------------------12p-10------|-------------------|--------10b--L--------10b--10--8--10--10b--|
G|-------------------------12b--|-------------------|-------------------------------------------|
D|------------------------------|-------------------|-------------------------------------------|
A|------------------------------|-------------------|-------------------------------------------|
E|------------------------------|-------------------|-------------------------------------------|

------------------------|------------------------|-----------------------------|
-------8b---------------|----------8b--L~--------|--<>8-5----8-5~--------------|
--9~--------------------|------------------------|--------7----------6---------|
------------------------|------------------------|-----------------------------|
------------------------|------------------------|-----------------------------|
------------------------|------------------------|-----------------------------|

-------------------------|-----------------------------------|----------------------|
-------------------------|-----------------------------------|-----------14b--------|
----------14b---L--------|--14-12-14--14pbr------------------|----------------------|
-------------------------|------------------14~---12---------|----------------------|
-------------------------|-----------------------------------|----------------------|
-------------------------|-----------------------------------|----------------------|

-------------------------------------|------------12------------------------------------------|
-------------------------------------|---------12----15b----15p-12-----12----15----12---------|
--14-12b----------12b--L--L--L--L----|-----14b---------------------14b----------14----14p-12--|
-----------14~-----------------------|------------------------------------14------------------|
-------------------------------------|--------------------------------------------------------|
-------------------------------------|--------------------------------------------------------|

-----------------------------------------|-----17b---------------15b------|
-----------------------------------------|--------------------17-----17~--|
---Lb------------------------------------|--------------------------------|
-------14p-12----------------------------|--------------------------------|
--------------12--L~---------------------|--------------------------------|
------------------------12g10~-----L\----|--------------------------------|

------15b----------------|--17b--------17--15--17--17b-15-----||
---L---------------------|--------------------------------17--||
-------------------------|------------------------------------||
-------------------------|------------------------------------||
-------------------------|------------------------------------||
-------------------------|------------------------------------||
Composição de Mark Baker / Mike Slamer
Colaboração e revisão:
  • Felipe Oliveira
224 exibições
    • ½ Tom
    • A
    • Bb
    • B
    • C
    • Db
    • D
    • Eb
    • E
    • F
    • F#
    • G
    • Ab
  • Adicionar à lista

    0 comentários

    Mostrar mais comentários

    Conseguiu tocar?

    0 Tocaram 0 Ainda não

    Grave um vídeo tocando Dr. Love e mande pra gente!

    00:00 / 00:00
    outros vídeos desta música
    repetir qualidade Automático
    Outros vídeos desta música
    00:00 / 00:00
    Automático

    Cifra Club Pro

    Aproveite o Cifra Club com benefícios exclusivos e sem anúncios
    Cifra Club Pro
    Aproveite o Cifra Club com benefícios exclusivos e sem anúncios
    OK