Cifra Club

Krone - Guilty Crown

Hiroyuki Sawano

Cifra: Principal (violão e guitarra)
Selo Cifra Club: esta cifra foi revisada para atender aos critérios oficiais da nossa Equipe de Qualidade.
tom: Eb
E|----11--10--11--6-----8--6------11--10--11-|
B|--4----------------4----------4------------|
G|-------------------------------------------|
D|-------------------------------------------|
A|-------------------------------------------|
E|-------------------------------------------|

E|-6---8--8-10-6-----------1---3-------------|
B|-----------------3---4-----------4---3---4-|
G|-------------------0---0---0---0---0---0---|
D|-------------------------------------------|
A|-------------------------------------------|
E|-------------------------------------------|

E|-------------------------------------------|
B|--1---3------4--3--4--------1---------4--3-|
G|0---0-----------------3--------3-----------|
D|-----------1-------------1---------1-------|
A|-------------------------------------------|
E|-------------------------------------------|

E|-------------------------------------------|
B|-4--------1--1-3---------------------------|
G|----3------------3-------3-------1--0--1--3|
D|-------1-----------------------------------|
A|-------------------------------------------|
E|-------------------------------------------|

E|-------------------------------------------|
B|--------1-----------------------4--3--4----|
G|-----3-----3--1--0---3-------------------3-|
D|---3--------------------3----1-------------|
A|-------------------------------------------|
E|-------------------------------------------|

E|-------------------------------------------|
B|----1----------4--3--4-----1--1-3----------|
G|-------3----------------3---------3--------|
D|-1----------1------------------------------|
A|-------------------------------------------|
E|-------------------------------------------|

E|-6------4-3-4---6---1-6--8---6--4----------|
B|-----------------------------------4-----3-|
G|--------------------------------------3----|
D|-------------------------------------------|
A|-------------------------------------------|
E|-------------------------------------------|

E|-------------------------------------------|
B|----4-3-4-3---3-4-3--4-3-4-3---3-4-3--4-3-4|
G|------------3----------------3-------------|
D|-------------------------------------------|
A|-------------------------------------------|
E|-------------------------------------------|

E|-------------------------------------------|
B|-3---3-4-3--4-3-4-3---3-4-3--4-3-4-3---3-4-|
G|---3----------------3----------------3-----|
D|-------------------------------------------|
A|-------------------------------------------|
E|-------------------------------------------|

E|--------------------6-1-6-1-6-1-6-1--1---1-|
B|3--4-3-4-3---3-4-3---------------------4---|
G|-----------3-------------------------------|
D|-------------------------------------------|
A|-------------------------------------------|
E|-------------------------------------------|

E|--1---1-----1---1---1---1-----1------------|
B|4---4---4-----4---4---4---4---------4--3--4|
G|-------------------------------------------|
D|----------------------------------1--------|
A|-------------------------------------------|
E|-------------------------------------------|

E|-------------------------------------------|
B|--------1---1--1-3-------------------------|
G|--3----------------3------3-3-1-1-0-0------|
D|-----1--------------------------------1----|
A|----------------------------------------1--|
E|-------------------------------------------|

E|-------------------------------------------|
B|------------------------------4--3--4------|
G|----3--3-1-1-0-0---------0-------------3---|
D|-----------------3-1-3-----1--------------1|
A|-------------------------------------------|
E|-------------------------------------------|

E|--------------------------1-----1--1----3--|
B|---1-------------4--3--4-------------------|
G|-------3---------------------3-------------|
D|--------------1----------------------------|
A|-------------------------------------------|
E|-------------------------------------------|

E|-------------------------------------------|
B|----------------------------1--3---4--3----|
G|--3------1-0-1---3------3----------------3-|
D|---------------------3---------------------|
A|-------------------------------------------|
E|-------------------------------------------|

E|---------------|
B|---------------|
G|-------0-------|
D|-----------3---|
A|---------------|
E|---------------|

Outros vídeos desta música
    280 exibições
      • ½ Tom
      • A
      • Bb
      • B
      • C
      • Db
      • D
      • Eb
      • E
      • F
      • F#
      • G
      • Ab
    • Adicionar à lista

    Afinação da cifra

    Afinador online

      0 comentários

      Ver todos os comentários

      Entre para o Cifra Club PRO

      Tenha acesso a benefícios exclusivos no App e no Site

      • Chega de anúncios

      • Badges exclusivas

      • Mais recursos no app do Afinador

      • Atendimento Prioritário

      • Aumente seu limite de lista

      • Ajude a produzir mais conteúdo

      Cifra Club Pro

      Aproveite o Cifra Club com benefícios exclusivos e sem anúncios
      Cifra Club Pro
      Aproveite o Cifra Club com benefícios exclusivos e sem anúncios
      Ops (: Contenido disponible sólo en portugués.
      OK