Cifra Club

Do You Remember

Jack Johnson

Cifra: Versão 2 (violão e guitarra)
tom: D
Intro
              D               A             G
e|------------2---------------0-0-----------3-3--------------2------------|
b|------------3--3---3--3-3---2-2-----------3-3--------------3------------|
g|------------2--2h4----4-2---2-2-----------0-0--------------2--2---------|
d|-----0-2-0--0---------------2-2-2h4-2-0---0-0-----0-2-0----0--2---------|
a|-0h2----------------------0---------------2-2-0h2-------------0---------|
E|----------------------------------------3-3-3---------------------------|

Riff 1
              D               A              G                   D   A
e|------------2---------------0-0------------3--3----------------2-----|
b|------------3--3---3--3-3---2-2------------3--3----------------3-----|
g|------------2--2h4----4-2---2-2------------0--0----------------2---2-|
d|-----0-2-0--0---------------2-2--2h4-2-0---0--0--0h2-0h2-0---0-0---2-|
a|-0h2----------------------0----------------2--2------------2-------0-|
E|-----------------------------------------3-3--3----------------------|

Riff 2
              D               A             G
e|------------2---------------0-0-----------3-3----2------------|
b|------------3--3---3--3-3---2-2-----------3-3----3------------|
g|------------2--2h4----4-2---2-2-----------0-0----2--2---------|
d|-----0-2-0--0---------------2-2-2h4-2-0---0-0----0--2---------|
a|-0h2----------------------0---------------2-2-------0---------|
E|----------------------------------------3-3-3-----------------|

Riff 3
              D               A          G
e|------------2---------------0-0--------3-3----2------------|
b|------------3--3---3--3-3---2-2--------3-3----3------------|
g|------------2--2h4----4-2---2-2--------0-0----2--2---------|
d|-----0-2-0--0---------------2-2--0-2---0-0----0--2---------|
a|-0h2----------------------0------------2-2-------0---------|
E|-------------------------------------3-3-3-----------------|

Riff 4
              D               A               G
e|------------2---------------0-0-------------3-3----2------------|
b|------------3--3---3--3-3---2-2-------------3-3----3------------|
g|------------2--2h4----4-2---2-2-------------0-0----2--2---------|
d|-----0-2-0--0---------------2-2-2h4-2-2p0---0-0----0--2---------|
a|-0h2----------------------0-----------------2-2-------0---------|
E|------------------------------------------3-3-3-----------------|


Intro

Riff1
Do you remember when we first met? I sure do
it was some time in early september
Riff2
You were lazy about it, you made me wait around
I was so crazy about you, I didn't mind

Riff 2
So I was late for class, I locked my bike to yours
It wasn't hard to find, you painted flowers on it
I guess that I was afraid that if you rolled away
You might not roll back my direction real soon

A
I was crazy about you then and now
          G      F#m  Em
the craziest thing of all is over ten years have gone by
And you're still mine, we're locked in time
  A G F#m Em
Let's Rewind

Riff3
Do you remember when we first moved in together?
The piano took up the living room
Riff4
You played me boogie-woogie I played you love songs
You'd say we're playing house now you still say we are

We built our getaway up in a tree we found
We felt so far away but we were still in town
Now I remember watching that old tree burn down
I took a picture that I don't like to look at

A
Well all these times they come and go
And alone don't seem so long
  G F#m Em
Over ten years have gone by
We can't rewind, we're locked in time
    A G F#m Em
But you're still mine
Riff5
Do you remember?
Composição de Jack Johnson
41.235 exibições
    • ½ Tom
    • A
    • Bb
    • B
    • C
    • Db
    • D
    • Eb
    • E
    • F
    • F#
    • G
    • Ab
  • Adicionar à lista

    0 comentários

    Ver todos os comentários

    Conseguiu tocar?

    0 Tocaram 0 Ainda não

    Grave um vídeo tocando Do You Remember e nos envie!

    00:00 / 00:00
    Outros vídeos desta música
    Repetir Qualidade Automático
    Outros vídeos desta música
    00:00 / 00:00
    Automático

    Cifra Club Pro

    Aproveite o Cifra Club com benefícios exclusivos e sem anúncios
    Cifra Club Pro
    Aproveite o Cifra Club com benefícios exclusivos e sem anúncios
    OK