Cifra Club

Aprenda

Highroyds

Kaiser Chiefs

Cifra: Principal (violão e guitarra)
tom: E
INTRO

e|-------------------------------------------------------------------------|
B|-------------------------------------------------------------------------|
G|-------------------------------------------------------------------------|
D|-------------------------------------------------------------------------|
A|-------------------------------------------------------------------------|
E|---0----0--0--3----5------3----------------------------------------------|

Riff 1 x4

Riff 2 (w/riff 1)
e|-----------3-5-3-5b7b5-3-5--3--0---------3-5-3-5p3p0-5p3p0---------------|
B|---5--5-5-------------------------5--5-5------------------5p3p0----------|
G|-------------------------------------------------------------------------|
D|----------------------------------------------------------------2--------|
A|-------------------------------------------------------------------------|
E|-------------------------------------------------------------------------|

e|-------------------------------------------------------------------------|
B|-------------------------------------------------------------------------|
G|-------------------------------------------------------------------------|
D|-------------------------------------------------------------------------|
A|-------------------------------------------------------------------------|
E|---5---------------------3-----------------------------------------------|
     I remember nights out when we were young

e|-------------------------------------------------------------------------|
B|-------------------------------------------------------------------------|
G|-------------------------------------------------------------------------|
D|-------------------------------------------------------------------------|
A|-------------------------------------------------------------------------|
E|---1---------------------------/5----------------------------------------|
They weren't very good, they were rubbish

e|-------------------------------------------------------------------------|
B|-------------------------------------------------------------------------|
G|-------------------------------------------------------------------------|
D|-------------------------------------------------------------------------|
A|-------------------------------------------------------------------------|
E|---5----------------------\3---------------------------------------------|
     Running round Highroyds isn't fun

e|-------------------------------------------------------------------------|
B|-------------------------------------------------------------------------|
G|-------------------------------------------------------------------------|
D|-------------------------------------------------------------------------|
A|-------------------------------------------------------------------------|
E|--\1----------------------/5---------------------------------------------|
Just teenagers testing their courage

A                           G
Standing outside nightclubs in the snow
     F                  A
It's not very cool or impressive
     A                             G
They let in all the girls from the year below
   F                       A    
No need for IDs with those dresses

Riff 3
e|-------------------------------------------------------------------------|
B|-------------------------------------------------------------------------|
G|-------------------------------------------------------------------------|
D|-------------------------------------------------------------------------|
A|-------------------------------------------------------------------------|
E|-----5--5--7--7--8--8--10--7---------------------------------------------|

B
Got news from afar

B               G
e|-------------------------------------------------------------------------|
B|-------------------------------------------------------------------------|
G|---------------------------------5b7-------------------------------------|
D|-------------------------------------------------------------------------|
A|-------------------------------------------------------------------------|
E|-------------------------------------------------------------------------|
From a girl who knows who were are

B
She's still got my dinner money

B                     Riff 3            
And she can keep it

Riff 1 x4

Riff 2 (with riff 1)

e|-------------------------------------------------------------------------|
B|-------------------------------------------------------------------------|
G|-------------------------------------------------------------------------|
D|-------------------------------------------------------------------------|
A|-------------------------------------------------------------------------|
E|---5-------------------------3-------------------------------------------|
     Never had a fight that we haven't lost

e|-------------------------------------------------------------------------|
B|-------------------------------------------------------------------------|
G|-------------------------------------------------------------------------|
D|-------------------------------------------------------------------------|
A|-------------------------------------------------------------------------|
E|----1--------------------/5----------------------------------------------|
We're not very tough or athletic

e|-------------------------------------------------------------------------|
B|-------------------------------------------------------------------------|
G|-------------------------------------------------------------------------|
D|-------------------------------------------------------------------------|
A|-------------------------------------------------------------------------|
E|---5-------------------------3-------------------------------------------|
     Once I had a boxing champ in a headlock

e|-------------------------------------------------------------------------|
B|-------------------------------------------------------------------------|
G|-------------------------------------------------------------------------|
D|-------------------------------------------------------------------------|
A|-------------------------------------------------------------------------|
E|---1------------------------/5-------------------------------------------|
     When he gets out I'll regret it

Riff 3

B                                        G
Got keys to a car, picked up a girl from Fosters Bar
B                                            Riff 3
The fast food and the cinema, it's not worth it

B                                                  G
Got word from down South, where he had heard it by word of mouth
B                                        Riff 3 x3
Haven't much stayed in touch, since Highroyds
Riff 1 x8

e|-------------------------------------------------------------------------|
B|-------------------------------------------------------------------------|
G|-------------------------------------------------------------------------|
D|-------------------------------------------------------------------------|
A|-------------------------------------------------------------------------|
E|-5--------------------------3--------------------------------------------|
   Let it go, let it go, and if I'm wrong then I won't know

e|-------------------------------------------------------------------------|
B|-------------------------------------------------------------------------|
G|-------------------------------------------------------------------------|
D|-------------------------------------------------------------------------|
A|-------------------------------------------------------------------------|
E|----1--------------------/5----------------------------------------------|
Coz no one's gonna tell me but ...

e|-------------------------------------------------------------------------|
B|-------------------------------------------------------------------------|
G|-------------------------------------------------------------------------|
D|-------------------------------------------------------------------------|
A|-------------------------------------------------------------------------|
E|--5--------------------------3-------------------------------------------|
But he has gone and Ian's gone, And everybody went home

e|-------------------------------------------------------------------------|
B|-------------------------------------------------------------------------|
G|-------------------------------------------------------------------------|
D|-------------------------------------------------------------------------|
A|-------------------------------------------------------------------------|
E|--1--------------------------/5------------------------------------------|
And nobody was left here in the end

B                                                  G
Got news from Uncle Hue, through his second cousin once removed
B                                                          Riff 3
It's too late there's a housing estate, it's called Highroyds
B                                                      G
Got a text from an ex, she wants to know when we're in London next
B                                               Riff 3 x3
Will you write a song about me, I don't think so

Riff 1 x4
Riff 2 (with riff 1)

G  E
Composição de Kaiser Chiefs
Colaboração e revisão:
  • Élison Duarte
936 exibições
    • ½ Tom
    • A
    • Bb
    • B
    • C
    • Db
    • D
    • Eb
    • E
    • F
    • F#
    • G
    • Ab
  • Adicionar à lista

    0 comentários

    Ver todos os comentários

    Conseguiu tocar?

    0 Tocaram 0 Ainda não

    Grave um vídeo tocando Highroyds e nos envie!

    00:00 / 00:00
    outros vídeos desta música
    repetir qualidade Automático
    Outros vídeos desta música
    00:00 / 00:00
    Automático

    Cifra Club Pro

    Aproveite o Cifra Club com benefícios exclusivos e sem anúncios
    Cifra Club Pro
    Aproveite o Cifra Club com benefícios exclusivos e sem anúncios
    OK