Cifra Club

Outside Of Me

Killing Heidi

Cifra: Principal (violão e guitarra)
Selo Cifra Club: esta cifra foi revisada para atender aos critérios oficiais da nossa Equipe de Qualidade.
tom: Em
E|E|-------------------------------------------------------------------------------||
                             OUTBDE  OF ME - Killing Heidi
E|E|-------------------------------------------------------------------------------||
Standard Tuning (low to high eadgbe)

/ = slide
h = hammer on

Intro/Verse (clean)
E|----5----5----5----5----5------5----5----5----5----5---|
B|-33---33---33---33---33---3-00---00---00---00---00---0-|
G|-------------------------------------------------------|
D|-------------------------------------------------------|
A|-------------------------------------------------------|
E|-------------------------------------------------------|
                                                              x3
E|----5----5----5----5----5-----------0------------------|
B|------------------------------------------3333333------|
G|-00---00---00---00---00---0-------0---0---2222222------|
D|----------------------------0h1/2---------0000000------|
A|-------------------------------------------------------|
E|-------------------------------------------------------|

Pre-Chorus (clean)
E|--0-------------0-------------0------------------------|
B|--0------3------0------3------0------3-----------------|
G|--0------2------0------2------0------2-----------------|
D|--2------0------2------0------2------0-----------------|
A|--2-------------2-------------2------------------------|
E|--0-------------0-------------0------------------------|
  strummed

Chorus (Distorted)
E|--------------------------------------------------------------|
B|--------------------------------------------------------------|
G|----44444444--------------44444444----------------------------|
D|----44444444---55555555---44444444---55555555-----------------|
A|----22222222---55555555---22222222---55555555-----------------|
E|---------------33333333--------------33333333-----------------|


Middle 8 (Dist)
E|---0----(0)----0----(0)--|
B|---0-----3-----1-----3---|
G|---0-----2-----0-----2---|
D|---2-----0-----2-----0---|
A|---2-----------3---------|
E|---0---------------------|
Strummed  -  alternatively play as E5, D5, C5, D5
Outros vídeos desta música
    0 exibições
      • ½ Tom
      • Am
      • Bbm
      • Bm
      • Cm
      • C#m
      • Dm
      • Ebm
      • Em
      • Fm
      • F#m
      • Gm
      • G#m
    • Adicionar à lista

    Afinação da cifra

    Afinador online

      0 comentários

      Ver todos os comentários

      Conseguiu tocar?

      0Tocaram0Ainda não

      Grave um vídeo tocando Outside Of Me e nos envie!

      Toque também

      1. Imagem do artista GrinspoonLiving In The City Grinspoon
      2. Imagem do artista Thirsty Merc20 Good Reasons Thirsty Merc
      3. Imagem do artista SuperjesusIm Stained Superjesus
      4. Imagem do artista Little BirdyTonights The Night Little Birdy

      Entre para o Cifra Club PRO

      Tenha acesso a benefícios exclusivos no App e no Site

      • Chega de anúncios

      • Badges exclusivas

      • Mais recursos no app do Afinador

      • Atendimento Prioritário

      • Aumente seu limite de lista

      • Ajude a produzir mais conteúdo

      Cifra Club Pro

      Aproveite o Cifra Club com benefícios exclusivos e sem anúncios
      Cifra Club Pro
      Aproveite o Cifra Club com benefícios exclusivos e sem anúncios
      Ops (: Contenido disponible sólo en portugués.
      OK