Cifra Club

Blackbirds

Linkin Park

Cifra: Principal
exibições 10.346
Tom: F
(No guitar until after the first chorus)

Pre-Verse - Guitar 1
|-------------------------------------------------------------------------------------------------|
|-------------------------------------------------------------------------------------------------|
|----------------------------------------------------------------------------------------------7--|
|-------------------------------------------------------------------------------------------------|
|-------------------------------------------------------------------------------------------------|
|-------------------------------------------------------------------------------------------------|

|-------------5-----------------------5-----------------------5-----------8-----8-----------------|
|-6-----8-----------6-----6-----8-----------6-----6-----8-----------6-----------------8-----8-----|
|----7-----7-----7-----7-----7-----7-----7-----7-----7-----7-----7-----7-----7-----7-----7-----7--|
|-------------------------------------------------------------------------------------------------|
|-------------------------------------------------------------------------------------------------|
|-------------------------------------------------------------------------------------------------|

2nd Verse - Guitar 1
|-------------5-----------------------5-----------------------5-----------8-----8-----------------|
|-6-----8-----------6-----6-----8-----------6-----6-----8-----------6-----------------8-----8-----|
|----7-----7-----7-----7-----7-----7-----7-----7-----7-----7-----7-----7-----7-----7-----7-----7--|
|-------------------------------------------------------------------------------------------------|
|-------------------------------------------------------------------------------------------------|
|-------------------------------------------------------------------------------------------------|

|-------------5-----------------------5-----------------------5-----------8-----8-----------------|
|-6-----8-----------6-----6-----8-----------6-----6-----8-----------6-----------------8-----8-----|
|----7-----7-----7-----7-----7-----7-----7-----7-----7-----7-----7-----7-----7-----7-----7-----7--|
|-------------------------------------------------------------------------------------------------|
|-------------------------------------------------------------------------------------------------|
|-------------------------------------------------------------------------------------------------|

|-------------5-----------------------5-----------------------5-----------8-----8-----------------|
|-6-----8-----------6-----6-----8-----------6-----6-----8-----------6-----------------8~----------|
|----7-----7-----7-----7-----7-----7-----7-----7-----7-----7-----7-----7-----7-----7-----------7--|
|-------------------------------------------------------------------------------------------------|
|-------------------------------------------------------------------------------------------------|
|-------------------------------------------------------------------------------------------------|

Chorus
|-------------5-----------------------5-----------------------5-----------8-----8-----------------|
|-6-----8-----------6-----6-----8-----------6-----6-----8-----------6-----------------8-----8-----|
|----7-----7-----7-----7-----7-----7-----7-----7-----7-----7-----7-----7-----7-----7-----7-----7--|
|-------------------------------------------------------------------------------------------------|
|-------------------------------------------------------------------------------------------------|
|-------------------------------------------------------------------------------------------------|
|Guitar 1
|
|-------------------------------------------------------------------------------------------------|
|-------------------------------------------------------------------------------------------------|
|-------------------------------------------------------------------------------------------------|
|-------------------------------------------------------------------------3--3--3--3--5--5--5--5--|
|-1--x--1--1--1--x--1--1--3--3--x--3--3--3--x--3--5--5--5--5--5--5--5--5--------------------------|
|-------------------------------------------------------------------------------------------------|
|Guitars 2 and 3

|-------------5-----------------------5-----------------------5-----------8-----8-----------------|
|-6-----8-----------6-----6-----8-----------6-----6-----8-----------6-----------------8-----8-----|
|----7-----7-----7-----7-----7-----7-----7-----7-----7-----7-----7-----7-----7-----7-----7-----7--|
|-------------------------------------------------------------------------------------------------|
|-------------------------------------------------------------------------------------------------|
|-------------------------------------------------------------------------------------------------|
|Guitar 1
|
|-------------------------------------------------------------------------------------------------|
|-------------------------------------------------------------------------------------------------|
|-------------------------------------------------------------------------------------------------|
|-------------------------------------------------------------------------3--3--3--3--5--5--5--5--|
|-1--x--1--1--1--x--1--1--3--3--x--3--3--3--x--3--5--5--5--5--5--5--5--5--------------------------|
|-------------------------------------------------------------------------------------------------|
|Guitars 2 and 3

|-------------5-----------8-----8-----------------|
|-6-----8-----------6-----------------8-----8-----|
|----7-----7-----7-----7-----7-----7-----7-----7--|
|-------------------------------------------------|
|-------------------------------------------------|
|-------------------------------------------------|
|Guitar 1
|
|-------------------------------------------------|
|-------------------------------------------------|
|-------------------------------------------------|
|-------------------------3--3--3--3--5--5--5--5--|
|-5--5--5--5--5--5--5--5--------------------------|
|-------------------------------------------------|
|Guitars 2 and 3

(No guitar in first part of bridge)

Bridge Part 2 - Guitars 2 and 3
|-------------------------------------------------------------------------------------------------|
|-------------------------------------------------------------------------------------------------|
|-------------------------------------------------------------------------------------------------|
|-------------------------------------------------------------------------------------------------|
|-5--5--5--5--5--5--5--5--5--5--5--5--5--5--5--5--5--5--5--5--5--5--5--5--5--5--5--5--5--5--------|
|-------------------------------------------------------------------------------------------------|

Final Chorus
|-------------5-----------------------5-----------------------5-----------8-----8-----------------|
|-6-----8-----------6-----6-----8-----------6-----6-----8-----------6-----------------8-----8-----|
|----7-----7-----7-----7-----7-----7-----7-----7-----7-----7-----7-----7-----7-----7-----7-----7--|
|-------------------------------------------------------------------------------------------------|
|-------------------------------------------------------------------------------------------------|
|-------------------------------------------------------------------------------------------------|
|Guitar 1
|
|-------------------------------------------------------------------------------------------------|
|-------------------------------------------------------------------------------------------------|
|-------------------------------------------------------------------------------------------------|
|-------------------------------------------------------------------------3--3--3--3--5--5--5--5--|
|-1--x--1--1--1--x--1--1--3--3--x--3--3--3--x--3--5--5--5--5--5--5--5--5--------------------------|
|-------------------------------------------------------------------------------------------------|
|Guitars 2 and 3
|
|-10~---------------------------------------------10~---------------------------------------------|
|-10~---------------------------------------------10~---------------------------------------------|
|-10~---------------------------------------------10~---------------------------------------------|
|-------------------------------------------------------------------------------------------------|
|-------------------------------------------------------------------------------------------------|
|-------------------------------------------------------------------------------------------------|
|Guitar 4

|-------------5-----------------------5-----------------------5-----------8-----8-----------------|
|-6-----8-----------6-----6-----8-----------6-----6-----8-----------6-----------------8-----8-----|
|----7-----7-----7-----7-----7-----7-----7-----7-----7-----7-----7-----7-----7-----7-----7-----7--|
|-------------------------------------------------------------------------------------------------|
|-------------------------------------------------------------------------------------------------|
|-------------------------------------------------------------------------------------------------|
|Guitar 1
|
|-------------------------------------------------------------------------------------------------|
|-------------------------------------------------------------------------------------------------|
|-------------------------------------------------------------------------------------------------|
|-------------------------------------------------------------------------3--3--3--3--5--5--5--5--|
|-1--x--1--1--1--x--1--1--3--3--x--3--3--3--x--3--5--5--5--5--5--5--5--5--------------------------|
|-------------------------------------------------------------------------------------------------|
|Guitars 2 and 3
|
|-10~---------------------------------------------10~---------------------------------------------|
|-10~---------------------------------------------10~---------------------------------------------|
|-10~---------------------------------------------10~---------------------------------------------|
|-------------------------------------------------------------------------------------------------|
|-------------------------------------------------------------------------------------------------|
|-------------------------------------------------------------------------------------------------|
|Guitar 4

|-------------5-----------8-----8-----------------------------5-----------------------5-----------|
|-6-----8-----------6-----------------8-----8-----6-----8-----------6-----6-----8-----------6-----|
|----7-----7-----7-----7-----7-----7-----7-----7-----7-----7-----7-----7-----7-----7-----7-----7--|
|-------------------------------------------------------------------------------------------------|
|-------------------------------------------------------------------------------------------------|
|-------------------------------------------------------------------------------------------------|
|Guitar 1
|
|-------------------------------------------------------------------------------------------------|
|-------------------------------------------------------------------------------------------------|
|-------------------------------------------------------------------------------------------------|
|-------------------------3--3--3--3--5--5--5--5--------------------------------------------------|
|-5--5--5--5--5--5--5--5--------------------------5--5--5--5--5--5--5--5--3--3--x--3--3--3--x--3--|
|-------------------------------------------------------------------------------------------------|
|Guitars 2 and 3
|
|-10~---------------------------------------------10~---------------------------------------------|
|-10~---------------------------------------------10~---------------------------------------------|
|-10~---------------------------------------------10~---------------------------------------------|
|-------------------------------------------------------------------------------------------------|
|-------------------------------------------------------------------------------------------------|
|-------------------------------------------------------------------------------------------------|
|Guitar 4

|-------------5-----------8-----8-----------------------------5-----------------------5-----------|
|-6-----8-----------6-----------------8-----8-----6-----8-----------6-----6-----8-----------6-----|
|----7-----7-----7-----7-----7-----7-----7-----7-----7-----7-----7-----7-----7-----7-----7-----7--|
|-------------------------------------------------------------------------------------------------|
|-------------------------------------------------------------------------------------------------|
|-------------------------------------------------------------------------------------------------|
|Guitar 1
|
|-------------------------------------------------------------------------------------------------|
|-------------------------------------------------------------------------------------------------|
|-------------------------------------------------------------------------------------------------|
|-------------------------------------------------------------------------------------------------|
|-1--x--1--1--1--x--1--1--1--x--1--1--3--3--x--3--5--5--5--5--5--5--5--5--3--3--x--3--3--3--x--3--|
|-------------------------------------------------------------------------------------------------|
|Guitars 2 and 3
|
|-10~---------------------------------------------10~---------------------------------------------|
|-10~---------------------------------------------10~---------------------------------------------|
|-10~---------------------------------------------10~---------------------------------------------|
|-------------------------------------------------------------------------------------------------|
|-------------------------------------------------------------------------------------------------|
|-------------------------------------------------------------------------------------------------|
|Guitar 4

|-------------5-----------8-----8-----------------|
|-6-----8-----------6-----------------8-----8-----|
|----7-----7-----7-----7-----7-----7-----7-----7--|
|-------------------------------------------------|
|-------------------------------------------------|
|-------------------------------------------------|
|Guitar 1
|
|-------------------------------------------------|
|-------------------------------------------------|
|-------------------------------------------------|
|-------------------------------------------------|
|-1--x--1--1--1--x--1--1--------------------------|
|-------------------------------------------------|
|Guitars 2 and 3
|
|-10~---------------------------------------------|
|-10~---------------------------------------------|
|-10~---------------------------------------------|
|-------------------------------------------------|
|-------------------------------------------------|
|-------------------------------------------------|
|Guitar 4
Acordes para:
    Colaboração e revisão:
    • Douglas Felipe
    • Luciano Araujo

    0 comentários

      mostrar mais comentários

      Conseguiu tocar?

      1tocaram0ainda não

      Grave um vídeo tocando Blackbirds e mande pra gente!

      00:00 / 00:00
      outros vídeos desta música
      repetirqualidadeautomática
      Outro vídeos desta música
        00:00 / 00:00
        automática
        OK