Cifra Club

Aprenda

Além do Que Se Vê

Los Hermanos

Cifra: Versão 3 (violão e guitarra)
tom: C
A7+ Bm7
Mo--ça 

C#m7 Cm7 Bm7 C#m7  Cm7  E      A7+
Olha     só  o   que eu te escrevi

E         A7+  Bm7
É preciso for--ça 

  C#m7 Cm7  Bm7   C#m7 Cm7  F#7
Pra  son--har e per--ce|---ber

        Bm7    E   Bm7      Dm D4 Dm
Que a estrada vai além do que se vê

(Essa passagem do Dm D4 Dm é feita da seguinte forma)

E|----1-----3-----1h3p0--------|                
B|----3---------------------3--|                                
G|----2------------------------|                                                                                        
D|----0------------------------|
A|-----------------------------|
E|-----------------------------|                         

    Am     G    Dm     G   E7(9-)    E7    Dm
E|--8-----7-----5-----3-------------7-----5-------|
B|--10----8-----6-----3-----6-------9-----6-------|
G|--9-----9-----7-----4-----7-------7-----7-------|
D|--------------7-----5-----6-------9-----7-------|
A|--------------5-----5-----7-------7-----5-------|
E|--------------------3---------------------------|

Am G Dm G E7(9-) E7 Dm

Sei que a tua solidão me dói
E que é difícil ser feliz
Mas do que somos todos nós
Você supõe o céu
Sei que o vento que entortou a flor
Passou também por nosso lar
E foi você quem desviou
Com golpes de 

A7+    Bm7     C#m7  Cm7  Bm7  C#m7  Cm7    E        A7+
Pincel eu sei, é o   a----mor  que   nin---guém mais vê
E              A7+  Bm7
Deixa eu ver a mo---ça
C#m7 Cm7   Bm7 C#m7  Cm7  F#7
Toma    o teu, vo---a    mais
       Bm7   E    Bm7  Am
Que o bloco da família vai atrás

     Am     G    Dm     G   E7(9-)    E7    Dm
E|--8-----7-----5-----3-------------7-----5-------|
B|--10----8-----6-----3-----6-------9-----6-------|
G|--9-----9-----7-----4-----7-------7-----7-------|
D|--------------7-----5-----6-------9-----7-------|
A|--------------5-----5-----7-------7-----5-------|
E|--------------------3---------------------------|

Am G Dm G E7(9-) E7 Dm
 
Põe mais um na mesa de jantar
Por que hoje eu vou pra aí te ver
E tira o som dessa TV
Pra gente conversar
Diz pro bamba usar o violão
Pede pro Tico me esperar
E avisa que eu só vou chegar
No último 

A7+   Bm7   C#m7     Bm7  C#m7    E  A7+
Vagão é   bom        te   ver     sorrir
E           A7+  Bm7
Deixa vir à mo---ça
C#m7   Cm7 Bm7  C#m7 Cm7  F#7
Que eu também   vou   atrás
    Bm7    E    Bm7     Am
E a banda diz: Assim é que se faz!

Am             Am       
Sei que a tua solidão me dói
Am           Am      
Sei daquela mesa de jantar

Final: Am F5 (8ª casa)
Composição de Marcelo Camelo
Colaboração e revisão:
  • Jorge André
  • sandro daniel
84.330 exibições
    • ½ Tom
    • A
    • Bb
    • B
    • C
    • Db
    • D
    • Eb
    • E
    • F
    • F#
    • G
    • Ab
  • Adicionar à lista

    0 comentários

    Ver todos os comentários

    Conseguiu tocar?

    4 Tocaram 0 Ainda não

    Grave um vídeo tocando Além do Que Se Vê e nos envie!

    00:00 / 00:00
    Outros vídeos desta música
    Repetir Qualidade Automático
    Outros vídeos desta música
    00:00 / 00:00
    Automático

    Cifra Club Pro

    Aproveite o Cifra Club com benefícios exclusivos e sem anúncios
    Cifra Club Pro
    Aproveite o Cifra Club com benefícios exclusivos e sem anúncios
    OK