Cifra Club

Cara a Cara

Luiz Melodia

Cifra: Principal
exibições 26.821
Tom: A
(Luiz Melodia/Renato Piau)


Intro:(x2) 
          A                        C#           F#      B              E
 e|-------------------5-5-5-|-----------------2-2-2-|-----------------0-0-0--|
 B|-------------------5-5-5-|-----------------2-2-2-|-----------------0-0-0--|
 G|-------------------6-6---|-----------------3-3---|-----------------1-1----|
 D|-------------------7-7---|-----------------4-4---|-----------------2-2----|
 A|-------------------7-----|-----------------4-----|-----------------2------|
 E|-5-3-5-3-5-3-5-3-5-5-----|-9-7-9-7-9-7-9-7-2-----|-7-5-7-5-7-5-7-5-0------|

       A               E
 e|-------------------0-0-0-|
 B|-------------------0-0-0-|
 G|-------------------1-1---|
 D|-------------------2-2---|
 A|-------------------2-----|
 E|-5-3-5-3-5-3-5-3-5-0-----|


 A
Cara, cara

Quando vejo você
       C#      F#
De calcinha preta
 B             E
Você me deixa louco
 A             E
Você me deixa de careta

 A
Pelo telefone
                  C#    F#
Ouço, vejo você de veneta
 B             E   
Você me deixa louco
 A             E
Você me deixa de careta

 A
Nova York, novo Brasil

Você mentiu
          C#   F#
É tudo espoleta
 B             E
Você me deixa louco
 A             E         A Bb
Você me deixa de careta

 Bm     
Peço um beijo
          Em7 C#m7
Então não dá
                       F#7
Diz pra mim o que é que há
 A           B
Desperta pra mim
 C#                  (F# F#sus4) 
Perfume como aquela flor

 Bm                  Em7 C#m7
Rosa, dália, turmalina
                  F#7
Fruto novo de se ver
 A            B
No escuro acordado
 C#           (F# F#sus4)
Te vejo de toda cor

(repete intro)
Acordes para:
    Composição: Luíz Melodia / Renato PiauColaboração e revisão:
    • Carlos Pedrotti

    0 comentários

      mostrar mais comentários

      Conseguiu tocar?

      0tocaram0ainda não

      Grave um vídeo tocando Cara a Cara e mande pra gente!

      00:00 / 00:00
      outros vídeos desta música
      repetirqualidadeAutomático
      Outro vídeos desta música
        00:00 / 00:00
        OK