Cifra Club

Puto

Molotov

Cifra: Versão 5 (violão e guitarra)
Selo Cifra Club: esta cifra foi revisada para atender aos critérios oficiais da nossa Equipe de Qualidade.
tom: Em


Puto
E|------------------|

verso
E|------------------------------------------------------------------|
B|------------------------------------------------------------------|
G|-------5--5------5------------2----4------------------------------|
D|-------5--5------5--5--5----2----4--------------------------------|
A|-------3--3------3--5--5----0----2--------------------------------|
E|-----------------------3--3---------------------------------------|

coro
E|------------------------------------------------------------------|
B|------------------------------------------------------------------|
G|-------5-5--5----4-4---5------------------------------------------|
D|-------5-5--5----4-4---5------------------------------------------|
A|-------3-3--3----2-2---3------------------------------------------|
E|------------------------------------------------------------------|

final
E|------------------------------------------------------------------|
B|------------------------------------------------------------------|
G|-------------------------------3/5----3/5---5---------------------| x2
D|------------------------------------------------------------------|
A|-------0---1---2--3-----------------------------------------------|
E|------------------------------------------------------------------|

E|------------------------------------------------------------------------|
B|------------------------------------------------------------------------|
G|------------------------------------------------------------------------|
D|-----------------------------------------------------------------2------|
A|----0-1-2-3---------0-1-2-3-------0-1-2-3--------3-------3-----3-3-3-3--|
E|--------------------------------------------------------3---------------|

E|------------------------------------------------------------------------|
B|------------------------------------------------------------------------|
G|---------5--------------------------------------------------------------|
D|------------------------------------------------------------------------|
A|-----------------3~~~---------------------------------------------------|
E|------------------------------------------------------------------------|

LETRA:

Que mun machino a mun machino marica nena mas bien putimo
Que mun machino a mun machino marica nena mas bien putimo
Que mun machino a mun machino marica nena mas bien putimo
Que mun machino a mun machino marica nena mas bien putimo

Puto al que no brique y que no salte
Puto al que no grit este desmadre
Puto al buey que quedo conforme
Puto al que creyo lo del informe
Puto al que nos quita la papa
Puto tambien el que lo tapa
Puto el que no hace lo que quiere
Puto puto nace puto se muere


amo al maton
matarile al maricon
y que quiere ese hijo de puta
quiere llorar
quiere llorar

amo al maton
matarile al maricon
y que quiere ese hijo de puta
quiere llorar
quiere llorar
Outros vídeos desta música
    90 exibições
      • ½ Tom
      • Am
      • Bbm
      • Bm
      • Cm
      • C#m
      • Dm
      • Ebm
      • Em
      • Fm
      • F#m
      • Gm
      • G#m
    • Adicionar à lista

    Afinação da cifra

    Afinador online

      0 comentários

      Ver todos os comentários

      Entre para o Cifra Club PRO

      Tenha acesso a benefícios exclusivos no App e no Site

      • Chega de anúncios

      • Badges exclusivas

      • Mais recursos no app do Afinador

      • Atendimento Prioritário

      • Aumente seu limite de lista

      • Ajude a produzir mais conteúdo

      Cifra Club Pro

      Aproveite o Cifra Club com benefícios exclusivos e sem anúncios
      Cifra Club Pro
      Aproveite o Cifra Club com benefícios exclusivos e sem anúncios
      Ops (: Contenido disponible sólo en portugués.
      OK