Cifra Club

Aprenda

Savin' Me

Nickelback

Cifra: Versão 2 (violão e guitarra)
tom: G
Intro:

c .|------------------|----------------------------------------------|
G .|---0---------0---0|---0---0--------------------------------------|
Eb.|-----2---------2--|-----2-------0-2------------------------------|
Bb.|------------------|-----------------2----------------------------|
F .|-3----------------|-0--------------------------------------------|
C .|-------0-3-3------|---------0-0----------------------------------|
                                                                         } 2x
c .|------------------|----------------------------------------------|
G .|---0---------0---0|---0---0-----0--------------------------------|
Eb.|-----2---------2--|-----2---------2------------------------------|
Bb.|------------------|-----------------2----------------------------|
F .|-3----------------|-0-------0-0----------------------------------|
C .|-------0-3-3------|----------------------------------------------|


Verso 1:

Prision gates won't open up for me...

c .|------------------|----------------------------------------------|
G .|---0---------0---0|---0---0--------------------------------------|
Eb.|-----2---------2--|-----2-------0-2------------------------------|
Bb.|------------------|-----------------2----------------------------|
F .|-3----------------|-0--------------------------------------------|
C .|-------0-3-3------|---------0-0----------------------------------|
                                                                          } 2x
c .|------------------|----------------------------------------------|
G .|---0---------0---0|---0---0-----0--------------------------------|
Eb.|-----2---------2--|-----2---------2------------------------------|
Bb.|------------------|-----------------2----------------------------|
F .|-3----------------|-0-------0-0----------------------------------|
C .|-------0-3-3------|----------------------------------------------|


Pre-Chorus:


And all I need is you...

c .|------------------|---|------------------------------------------|
G .|---0---------0---0|---|------------------------------------------|
Eb.|-----2---------2--|-2-|------------------------------------------|
Bb.|------------------|---|------------------------------------------|
F .|-3----------------|---|------------------------------------------|
C .|-------0-3-3------|---|------------------------------------------|

c .|------------------|---|------------------------------------------|
G .|---0---------0---0|---|------------------------------------------|
Eb.|-----2---------2--|-2-|------------------------------------------|
Bb.|------------------|---|------------------------------------------|
F .|-3----------------|---|------------------------------------------|
C .|-------0-3-3------|---|------------------------------------------|



Chorus:


Show me what it's like...

        Em             G              D/A            A
c .|-7--7--7--x--x--7--7--7--x--x--5--5--5--x--x--5--5--5--|
G .|-8--8--8--x--x--8--8--8--x--x--7--5--5--x--x--5--5--5--|
Eb.|-9--9--9--x--x--7--7--7--x--x--7--7--7--x--x--6--6--6--|  2x
Bb.|-9--9--9--x--x--9--9--9--x--x--7--7--7--x--x--7--7--7--|
F .|-7--7--7--x--x--10-10-10-x--x--5--5--5--x--x--7--7--7--|
C .|-------------------------------5--5--5--x--x--5--5--5--|


Say it for me...

        C        G        Am        Em     G
c .|-0-0-0-0--3-3-3-3--0-0-0-0---0-0-0--3-3-3---|
G .|-1-1-1-1--3-3-3-3--1-1-1-1---0-0-0--0-0-0---|
Eb.|-0-0-0-0--0-0-0-0--2-2-2-2---0-0-0--0-0-0---|
Bb.|-2-2-2-2--0-0-0-0--2-2-2-2---2-2-2--0-0-0---|
F .|-3-3-3-3--2-2-2-2--0-0-0-0---2-2-2--2-2-2---|
C .|----------3-3-3-3------------0-0-0--3-3-3---|


        C        G        Am
c .|-0-0-0-0--3-3-3-3--0-0-0---|
G .|-1-1-1-1--3-3-3-3--1-1-1---|
Eb.|-0-0-0-0--0-0-0-0--2-2-2---|
Bb.|-2-2-2-2--0-0-0-0--2-2-2---|
F .|-3-3-3-3--2-2-2-2--0-0-0---|
C .|----------3-3-3-3----------|


Verso 2:

Heaven's gates won't open up for me...

c .|------------------|----------------------------------------------|
G .|---0---------0---0|---0---0--------------------------------------|
Eb.|-----2---------2--|-----2-------0-2------------------------------|
Bb.|------------------|-----------------2----------------------------|
F .|-3----------------|-0--------------------------------------------|
C .|-------0-3-3------|---------0-0----------------------------------|
                                                                         } 2x
c .|------------------|----------------------------------------------|
G .|---0---------0---0|---0---0-----0--------------------------------|
Eb.|-----2---------2--|-----2---------2------------------------------|
Bb.|------------------|-----------------2----------------------------|
F .|-3----------------|-0-------0-0----------------------------------|
C .|-------0-3-3------|----------------------------------------------|



Pre-Chorus:


And all I need is you...

c .|------------------|---|------------------------------------------|
G .|---0---------0---0|---|------------------------------------------|
Eb.|-----2---------2--|-2-|------------------------------------------|
Bb.|------------------|---|------------------------------------------|
F .|-3----------------|---|------------------------------------------|
C .|-------0-3-3------|---|------------------------------------------|

c .|------------------|---|------------------------------------------|
G .|---0---------0---0|---|------------------------------------------|
Eb.|-----2---------2--|-2-|------------------------------------------|
Bb.|------------------|---|------------------------------------------|
F .|-3----------------|---|------------------------------------------|
C .|-------0-3-3------|---|------------------------------------------|



Chorus:


Show me what it's like...

        Em             G              D/A            A
c .|-7--7--7--x--x--7--7--7--x--x--5--5--5--x--x--5--5--5--|
G .|-8--8--8--x--x--8--8--8--x--x--7--5--5--x--x--5--5--5--|
Eb.|-9--9--9--x--x--7--7--7--x--x--7--7--7--x--x--6--6--6--|  2x
Bb.|-9--9--9--x--x--9--9--9--x--x--7--7--7--x--x--7--7--7--|
F .|-7--7--7--x--x--10-10-10-x--x--5--5--5--x--x--7--7--7--|
C .|-------------------------------5--5--5--x--x--5--5--5--|


Say it for me...

        C        G        Am        Em     G
c .|-0-0-0-0--3-3-3-3--0-0-0-0---0-0-0--3-3-3---|
G .|-1-1-1-1--3-3-3-3--1-1-1-1---0-0-0--0-0-0---|
Eb.|-0-0-0-0--0-0-0-0--2-2-2-2---0-0-0--0-0-0---|
Bb.|-2-2-2-2--0-0-0-0--2-2-2-2---2-2-2--0-0-0---|
F .|-3-3-3-3--2-2-2-2--0-0-0-0---2-2-2--2-2-2---|
C .|----------3-3-3-3------------0-0-0--3-3-3---|


     C        G        Am        Em     G
c .|-0-0-0-0--3-3-3-3--0-0-0-0---0-0-0--3-3-3---|
G .|-1-1-1-1--3-3-3-3--1-1-1-1---0-0-0--0-0-0---|
Eb.|-0-0-0-0--0-0-0-0--2-2-2-2---0-0-0--0-0-0---|
Bb.|-2-2-2-2--0-0-0-0--2-2-2-2---2-2-2--0-0-0---|
F .|-3-3-3-3--2-2-2-2--0-0-0-0---2-2-2--2-2-2---|
C .|----------3-3-3-3------------0-0-0--3-3-3---|



Solo:  (A base do solo é o refrão)

D|-----------------------------------------------------------------------------------------------------
A|-----------------------------------------------------------------------------------------------------
F|-----------------------------------------------------------------------------------------------------
C|-7b8r7--5-3-5--7b8r7--5-3-5--7b8r7--5-3-5-----------5h7p5-3h5-3h5------------
B|------------------------------------------5-5-5-5/8-----------------------------------
C|-----------------------------------------------------------------------------------------------------

D|----------------------------------------------------------------------------------------------------
A|----------------------------------------------------------------------------------------------------
F|-----------------------------------------------------------------------------------------------------
C|-7b8r7--5-3-5-----------5h7-5--7-7-7-7/8--8-8-8/10--10-10-10/12--12-12-------
B|--------------5-5-5-5/8------------------------------------------------------------------------
C|-----------------------------------------------------------------------------------------------------

D|---------------------------------------------------------------------------------------------
A|-10b11r10--8-6-8-10h11p10--8-6-8--10b11r10--8-6-8----------------------
F|---------------------------------------------------------------------------------------------
C|---------------------------------------------------------------------------------------------
B|---------------------------------------------------------------------------------------------
C|---------------------------------------------------------------------------------------------

D|---------------------------------------------------------------------------------------------
A|-----------8h10(8)--6h8(6)--8/10-10-10-10/11-11-11---------------------------
F|-7-7-7-7/8-----------------------------------------------------------------------------------
C|----------------------------------------------------------------------------------------------
B|----------------------------------------------------------------------------------------------
C|----------------------------------------------------------------------------------------------

D|----------------13b15----------------------------------------------------------------
A|-11h13p11----13---------------------------------------------------------------------------
F|----------15-----------------------------------------------------------------------------
C|---------------------------------------------------------------------------------------------
B|---------------------------------------------------------------------------------------------
C|---------------------------------------------------------------------------------------------


Verso 3:

And all I need is you...


c .|------------------|----------------------------------------------|
G .|---0---------0---0|---0---0--------------------------------------|
Eb.|-----2---------2--|-----2-------0-2------------------------------|
Bb.|------------------|-----------------2----------------------------|
F .|-3----------------|-0--------------------------------------------|
C .|-------0-3-3------|---------0-0----------------------------------|
                                                                         } 2x
c .|------------------|----------------------------------------------|
G .|---0---------0---0|---0---0-----0--------------------------------|
Eb.|-----2---------2--|-----2---------2------------------------------|
Bb.|------------------|-----------------2----------------------------|
F .|-3----------------|-0-------0-0----------------------------------|
C .|-------0-3-3------|----------------------------------------------|



Chorus:


Show me what it's like...

        Em             G              D/A            A
c .|-7--7--7--x--x--7--7--7--x--x--5--5--5--x--x--5--5--5--|
G .|-8--8--8--x--x--8--8--8--x--x--7--5--5--x--x--5--5--5--|
Eb.|-9--9--9--x--x--7--7--7--x--x--7--7--7--x--x--6--6--6--|  2x
Bb.|-9--9--9--x--x--9--9--9--x--x--7--7--7--x--x--7--7--7--|
F .|-7--7--7--x--x--10-10-10-x--x--5--5--5--x--x--7--7--7--|
C .|-------------------------------5--5--5--x--x--5--5--5--|


Say it for me...

        C        G        Am        Em     G
c .|-0-0-0-0--3-3-3-3--0-0-0-0---0-0-0--3-3-3---|
G .|-1-1-1-1--3-3-3-3--1-1-1-1---0-0-0--0-0-0---|
Eb.|-0-0-0-0--0-0-0-0--2-2-2-2---0-0-0--0-0-0---| 3x
Bb.|-2-2-2-2--0-0-0-0--2-2-2-2---2-2-2--0-0-0---|
F .|-3-3-3-3--2-2-2-2--0-0-0-0---2-2-2--2-2-2---|
C .|----------3-3-3-3------------0-0-0--3-3-3---|


        C        G        Am
c .|-0-0-0-0--3-3-3-3--0-0-0---|
G .|-1-1-1-1--3-3-3-3--1-1-1---|
Eb.|-0-0-0-0--0-0-0-0--2-2-2---|
Bb.|-2-2-2-2--0-0-0-0--2-2-2---|
F .|-3-3-3-3--2-2-2-2--0-0-0---|
C .|----------3-3-3-3----------|
Composição de Chad Kroeger / Nickelback
Colaboração e revisão:
  • Juan Pablo
  • João Moreira
850 exibições
    • ½ Tom
    • A
    • Bb
    • B
    • C
    • Db
    • D
    • Eb
    • E
    • F
    • F#
    • G
    • Ab
  • Adicionar à lista

    0 comentários

    Ver todos os comentários
    00:00 / 00:00
    Outros vídeos desta música
    Repetir Qualidade Automático
    Outros vídeos desta música
    00:00 / 00:00
    Automático

    Cifra Club Pro

    Aproveite o Cifra Club com benefícios exclusivos e sem anúncios
    Cifra Club Pro
    Aproveite o Cifra Club com benefícios exclusivos e sem anúncios
    OK