Cifra Club

The Islander

Nightwish

Cifra: Principal (violão e guitarra)
exibições 73.116
Tom: D
[Intro]

E|-----------------------------------------------------------|
B|--0--2--3--2-----------------------------------------------|
G|--------------4--2--4--------------------------------------|
D|-----------------------4--0--2--0-----0--------------------|
A|-----------------------------------2-----4--0--------------|
E|-----------------------------------------------3-----------|

[Verso]
   Bm           B5(9)    C7M           C9(7M)
An old man by a seashore At the end of day
A4           G         A               Bm
Gazes the horizon With seawinds in his face
Bm           B5(9)    C7M             C9(7M)
Tempest-tossed island Seasons all the same
A4            G            A             Bm
Anchorage unpainted And a ship without a name
Bm             B5(9)        C7M           C9(7M)
Sea without a shore for the banished one unheard
A4              G       A                      Bm
He lightens the beacon, light at the end of world
Bm          B5(9)        C7M           C9(7M)
Showing the way lighting hope in their hearts
A4                G       A              Bm
The ones on their travels homeward from afar

[Refrão]

Bm           G    D   A  Bm   G            D         Em   Bm
This is for long-for-got-ten  light at the end of the wor--ld
   G  D   A   Bm       G               D          Em
Ho-ri-zon cry-ing  the tears he left behind long ago

E|-----------------------------------------------------------|
B|--0--2--3--2-----------------------------------------------|
G|--------------4--2--4--------------------------------------|
D|-----------------------4--0--2--0-----0--------------------|
A|-----------------------------------2-----4--0--------------|
E|-----------------------------------------------3-----------|

    Bm           B5(9)    C7M         C9(7M)
The albatross is flying Making him daydream
     A4         G         A                    Bm
The time before he became One of the world's unseen
Bm              B5(9)  C7M             C9(7M)
Princess in the tower, Children in the fields
A4               G          A             Bm
Life gave him it all: An island of the universe
Bm               B5(9)    C7M          C9(7M)
Now his love's a memory A ghost in the fog
   A4                 G                A               Bm
He sets the sails one last time Saying farewell to the world
Bm            B5(9) C7M        C9(7M)
Anchor to the water Seabed far below
A4             G              A                 Bm
Grass still in his feet And a smile beneath his brow

[Refrão]

Bm           G    D   A  Bm   G            D         Em   Bm
This is for long-for-got-ten  light at the end of the wor--ld
   G  D   A   Bm       G               D          Em
Ho-ri-zon cry-ing  the tears he left behind long ago
Acordes para:
    Composição: Marco Hietala / Tuomas HolopainenColaboração e revisão:

    0 comentários

      mostrar mais comentários

      Conseguiu tocar?

      28tocaram1ainda não

      Grave um vídeo tocando The Islander e mande pra gente!

      00:00 / 00:00
      outros vídeos desta música
      repetirqualidadeAutomático
      Outro vídeos desta música
        00:00 / 00:00
        OK