Cifra Club

Canção do Apocalipse

Nívea Soares

Cifra: Principal (violão e guitarra)
Tom: E
[Intro] B9

B9                  F#m7
 Digno é o Cordeiro, que foi morto
A9                E
 Santo, Santo Ele é
B9               F#m7
 Um novo cântico, ao que se assenta
A9                 E
 Sobre o trono do céu
B9                  F#m7
 Digno é o Cordeiro, que foi morto
A9                E
 Santo, Santo Ele é
B9               F#m7
 Um novo cântico, ao que se assenta
A9                 E
 Sobre o trono do céu

B9
 Santo, Santo, Santo
F#m7
 Deus Todo Poderoso
A9                    E
 Que era e é e há de vir
B9
 Com a criação eu canto
F#m7
 Louvores ao Rei dos reis
A9
 És tudo para mim
  E           B9  F#m7  A9  E
E eu Te adorarei

[Solo 1]
E|--------------------------------------------------------------|
B|--------------------------------------------------------------|
G|---9-8--------8-8h9-8---8h9-8----------------------9-9/11-----|
D|9------9-9/11---------9-------9-9/11-9-7-6-7-7/9--9-----------|
A|--------------------------------------------------------------|
E|--------------------------------------------------------------|

B9            F#m7
 Está vestido, do arco-íris
A9                         E
 Sons de trovão, luzes, relâmpagos
B9
 Louvores, honra e glória
F#m7
 Força e poder pra sempre
A9                   E
 Ao único Rei eternamente

B9
 Santo, Santo, Santo
F#m7
 Deus Todo Poderoso
A9                    E
 Que era e é e há de vir
B9
 Com a criação eu canto
F#m7
 Louvores ao Rei dos reis
A9
 És tudo para mim
  E            B9  F#m7  A9  E
 E eu Te adorarei

[Solo 2]
E|-------------------------------------------------------------------------------|
B|------------------------10-9-11-9h10-9h10-11-----------------------------------|
G|9-8------------------------------------------9h10-9h10-11----------------------|
D|----9-11--11/13-11\9-11--------------------------------------------------------|
A|-------------------------------------------------------------------------------|
E|-------------------------------------------------------------------------------|

B9           F#m7
 Maravilhado, extasiado
A9                     E
 Eu fico ao ouvir Teu nome
B9           F#m7
 Maravilhado, extasiado
A9                     E
 Eu fico ao ouvir Teu nome
B9           F#m7
 Maravilhado, extasiado
A9                     E
 Eu fico ao ouvir Teu nome
B9
 Jesus, Teu nome é força
F#m7
 É fôlego de vida
A9                E
 Misteriosa água viva

[Solo de guitarra e teclado]
E|--------------------------------------------------------------------|
B|----------------------------------------7-9-10-7-9-10-10-9-7-5-2-5-5|
G|---------------------------------------6----------------------------|
D|4-6-7-4-6-7-7-6-4-2-----6-7-6-----6-7-9-----------------------------|
A|-------------------4-7-7-----9-7-9----------------------------------|
E|--------------------------------------------------------------------|

B9
 Santo, Santo, Santo
F#m7
 Deus Todo Poderoso
A9                    E
 Que era e é e há de vir
B9
 Com a criação eu canto
F#m7
 Louvores ao Rei dos reis
A9
 És tudo para mim
  E           B9
E eu Te adorarei
B9
 Santo, Santo, Santo
F#m7
 Deus Todo Poderoso
A9                    E
 Que era e é e há de vir
B9
 Com a criação eu canto
F#m7
 Louvores ao Rei dos reis
A9
 És tudo para mim
  E           B9  F#m7  A9  E
E eu Te adorarei
exibições 67.148
Acordes para:
    Colaboração e revisão:
    • Lucas Kappaun
    • Miriam Corradi

    0 comentários

    mostrar mais comentários

    Conseguiu tocar?

    7 tocaram 3 ainda não

    Grave um vídeo tocando Canção do Apocalipse e mande pra gente!

    00:00 / 00:00
    outros vídeos desta música
    repetir qualidade Automático
    Outros vídeos desta música
    00:00 / 00:00
    Automático
    OK