Cifra Club

Não É Normal

Nx Zero

Cifra: Original (violão e guitarra)
tom: Ab
   Db5(9)    Bb4    Ab5/F   Eb9/F
E|-------|-------|-------|-------|
B|-------|-------|-------|-------|
G|--8----|---8---|---8---|---8---|
D|--6----|-------|---6---|---5---|
A|--4----|---8---|---8---|---8---|
E|-------|---6---|-------|-------|

Riff 1:
E|---8---8---6---6---8---8---6---6----11-----11-----11---11--|
B|-6---6---4---4---6---6---4---4----9----9-9----9-8----8-----|
G|-----------------------------------------------------------|
D|-----------------------------------------------------------|
A|-----------------------------------------------------------|
E|-----------------------------------------------------------|

E|-----11-----11-----11-----11-----8---8---6---6---8---8---6-|
B|-8-9----9-9----9-8----8-8---8--6---6---4---4---6---6---4---|
G|-----------------------------------------------------------|
D|-----------------------------------------------------------|
A|-----------------------------------------------------------|
E|-----------------------------------------------------------|

Riff 2:
                (4x)                           (4x)
E|---8---8---6---6--|----11-----11-----11---11-----|
B|-6---6---4---4----|--9----9-9----9-8----8----8---|
G|------------------|------------------------------|
D|------------------|------------------------------|
A|------------------|------------------------------|
E|------------------|------------------------------|

Intro: Ab5/F

           Db5(9)
Por que toda vez que você sai
         Bb4
Parte de mim também se vai
               Ab5/F
Isso não é normal
             Db5(9)
Saiba que um dia sem você
             Bb4
É uma eternidade para mim
              Ab5/F
Isso não é normal
    Db5(9)
Então você me disse
                    Bb4
Nunca vai dar certo é, eu te respondo
                   Ab5/F
Tem que confiar em mim

Mais uma vez, sei que errei
          Eb9/F
Não jogue fora, algo assim tão bom
Db5(9)
Prometo que essa é a última promessa
Bb4                                   Ab5/F
E se depender de mim você nunca mais vai, sofrer
                                Eb9/F
Não quero te perder, mais uma vez

Refrão:
               (Riff 1)
Por que toda vez que você sai
Parte de mim também se vai
Isso não é normal
Saiba que um dia sem você
É uma eternidade para mim
Db5             Bb5                     F5
O tempo todo, o tempo todo é tempo demais
                 Ab5                     Db5
não é pra sempre, o pra sempre sempre se vai
 Bb5     F5 Ab5
Uôoo  Uôoo
               Db5  Bb5      Ab5/F
nem tudo que acaba, tem final

     Db5(9)                                  Bb4
Lembra, você me disse nunca vai dar certo, ok
                                  Ab5/F
Mas pense nisso, o que é certo para mim,
Pode não ser pra você
       Eb9/F
Deixe o futuro pra depois
Db5(9)                                  Bb4
Não vai ser como, recomeçar do nada, pois
                             Ab5/F
Nada pode mudar o que já começou
                                       Eb9/F
Então faça agora, tudo isso valer a pena

Refrão:
(Riff 1)
Por que toda vez que você sai
Parte de mim também se vai
Isso não é normal
Saiba que um dia sem você
É uma eternidade para mim

Db5             Bb5                     F5
O tempo todo, o tempo todo é tempo demais
                 Ab5                     Db5
não é pra sempre, o pra sempre sempre se vai
   Bb5     F5 Ab5
Uôoo  Uôoo
               Db5     Bb5       (Riff 2)
Nem tudo que acaba  tem final
Nem tudo que acaba  tem final
Nem tudo que acaba  tem final
Uôo Uôo

( Ab5/F )

Db5(9)
Por que toda vez que você sai
         Bb4
Parte de mim também se vai
              Ab5/F
Isso não é normal
Composição de Di Ferrero / Gee Rocha
Colaboração e revisão:
  • Fábio
  • Bruno Silva
37.119 exibições
  • Simplificar cifra
    • ½ Tom
    • A
    • Bb
    • B
    • C
    • Db
    • D
    • Eb
    • E
    • F
    • F#
    • G
    • Ab
  • Adicionar à lista

    0 comentários

    Ver todos os comentários

    Conseguiu tocar?

    14 Tocaram 0 Ainda não

    Grave um vídeo tocando Não É Normal e nos envie!

    00:00 / 00:00
    Outros vídeos desta música
    Repetir Qualidade Automático
    Outros vídeos desta música
    00:00 / 00:00
    Automático
    Capítulos
    • Início
    • Tocando a música
    • Acordes da Introdução e Primeira Parte
    • Tocando Introdução e Primeira Parte
    • Ensinando Introdução e Primeira Parte
    • Acordes Refrão
    • Tocando Refrão
    • Ensinando Refrão com variação
    • Ensinando Segunda Parte
    • Tocando Repetição
    • Ensinando Segunda Parte com Variação
    • Encerramento

    Cifra Club Pro

    Aproveite o Cifra Club com benefícios exclusivos e sem anúncios
    Cifra Club Pro
    Aproveite o Cifra Club com benefícios exclusivos e sem anúncios
    OK