Cifra Club

OutroEu

OutroEu

Cifra: Principal (violão e guitarra)
tom: C
[Intro]  (Riff 1)  (Riff 2)  (Riff 1)  (Riff 2)

(Riff 1)

E|--------------------------------------------|
B|----------1 -----1-----1---------1-------1--|
G|------0-----0------0----------0--------0----|
D|---------------------------2------3---------|
A|-0-----2-----3------------------------------|
E|--------------------------------------------|

E|-------------------------|
B|-----1-----1/3----1------|
G|---2-------2-----2-------|
D|-3---------3-------------|
A|-------------------------|
E|-------------------------|

(Riff 2)

E|--------------------------------------------|
B|-------1----------1--------1-------1----1---|
G|----2--------0--------0-------0------0------|
D|-3-------2--------0-------------------------|
A|---------------------------3------0---------|
E|--------------------------------------------|

E|------------------------|
B|----1---1/3---1---------|
G|-0------0----0----------|
D|------------------------|
A|------------------------|
E|------------------------|

(Riff 1)
Ela  me falou
(Riff 2)
Trilha o seu caminho
(Riff 1)
Tenho só a dizer
(Riff 2)
A vida me escolheu você
(Riff 1)
Certo é o sol que andou
(Riff 2)
Mudando o céu onde passou
F
Meu outro eu
F          G/B    Em           F
Sempre quer você eh ehhhh
F          G/B    Em           F
Sempre quer você eh ahhhh

(Riff 1)  (Riff 2)  (Riff 1)  (Riff 2)

(Riff 1)
Silêncio caos chegou
(Riff 2)
Mostrando a mim mais do que sou
(Riff 1)
Avisa à quem vier
(Riff 2)
Ter alguém é raro, o amor é fé

F
Meu outro eu
F          G/B   Em           F
Sempre quer você eh ehhhh
F          G/B   Em           F
Sempre quer você eh ahhhh

( C )

[Solo]  Am  C

F
Meu outro eu
F          G/B   Em           F
Sempre quer você eh ehhhh
F          G/B   Em           F
Sempre quer você eh ahhhh

F
Dói demais
00:00 / 00:00
Outros vídeos desta música
Repetir
Outros vídeos desta música
Compositor não encontrado.
Colaboração e revisão:
  • Lucas Kappaun
  • Adriano Santo
15.102 exibições
    • ½ Tom
    • A
    • Bb
    • B
    • C
    • Db
    • D
    • Eb
    • E
    • F
    • F#
    • G
    • Ab
  • Adicionar à lista

    0 comentários

    Ver todos os comentários

    Conseguiu tocar?

    3 Tocaram 4 Ainda não

    Grave um vídeo tocando OutroEu e nos envie!

    Entre para oCifra Club PRO

    Tenha acesso a benefícios exclusivos no App e no Site

    • Chega de anúncios

    • Prioridade de compra em lançamentos

    • Mais recursos no app do Afinador

    • Atendimento Prioritário

    • Descontos nos produtos Cifra Club

    • Ajude a produzir mais conteúdo

    00:00 / 00:00

    Cifra Club Pro

    Aproveite o Cifra Club com benefícios exclusivos e sem anúncios
    Cifra Club Pro
    Aproveite o Cifra Club com benefícios exclusivos e sem anúncios
    OK