Cifra Club

Até Que Durou

Péricles

Cifra: Principal (violão e guitarra)
tom: C
[Intro] C  G  D  G
        C  G  D


D|--5-7-5-----------------------------------|
B|----------------5--3---------------5--3---|
G|----------5--4-------------2-4-2----------|
D|----------------------5--4----------------|

D|--5-7-5-----------------------------------|
B|----------------5--3---------------5--3---|
G|----------5--4-------------2-4-2----------|
D|----------------------5--4----------------|

[Primeira Parte]

 C
Tentei fazer valer a pena
 D
Passei por cima dos problemas
Bm
Achei que eu era o bastante
 Em7               D
Mas não fui pra você

D|---------------------------------|
B|----3-------3----3------3--------|
G|-------2---2--2-2--2---2-2---2---|
D|---------5-----5----5------5-----|

D|---------------------------------|
B|----3-------3----3------3--------|
G|-------2---2--2-2--2---2-2---2---|
D|---------4-----4----4------4-----|

D|---------------------------------|
B|----3-------3----3------3--------|
G|-------2---2--2-2--2---2-2---2---|
D|---------4-----4----4------4-----|

D|---------------------------------|
B|----0-------0----0------0--------|
G|-------2---2--2-2--2---2-2---2---|
D|---------4-----4----4------4-----|

 C
Tentei ser um cara perfeito
 D
Eu fiz as coisas do seu jeito
 Bm
Queria ser mais importante
 Em7               D
Mas não fui pra você

[Riff]

D|---5----------------|
B|------7-------------|
G|----------4--2--5---|
D|--------------------|

[Pré-Refrão]

C7M        B7
Até que durou
          Em7
Me diz o porque
        A7(4)          C7M
Perdeu tanto tempo aqui
              B7
Te faço um favor
           Em7  A7
Melhor eu sumir

[Refrão]

 C7M
Fui mais um nas suas mãos
                  D
Não sei se por carência ou falta de opção
           Em7
Só sei que eu senti amor
          A7           A4/7 A7
Que pena só eu senti amor

C7M
O que faço com os planos
             D
Dos próximos anos
              D7
Juro que não sei
           Em7
Só sei que eu senti amor
          A7  D  A   D   A
Que pena só eu senti amor

 C     D7     Em  A7
Só eu senti amor

[Solo]

D|------5---------12---7----12---|
B|-----------------------7-8-----|
G|---4-5---11-12----6-7----------|
D|-------------------------------|

C
Tentei ser um cara perfeito
 D
Eu fiz as coisas do seu jeito
 Bm
Queria ser mais importante
 Em7               D
Mas não fui pra você

[Riff]

D|-----5--4--2--0---|
B|------------------|
G|---4--------------|
D|------------------|

[Pré-Refrão]

C7M        B7
Até que durou
          Em7
Me diz o porque
        A7(4)          C7M
Perdeu tanto tempo aqui
              B7
Te faço um favor
           Em7  A7
Melhor eu sumir

[Refrão]

 C7M
Fui mais um nas suas mãos
                  D
Não sei se por carência ou falta de opção
           Em7
Só sei que eu senti amor
          A7           A4/7 A7
Que pena só eu senti amor

C7M
O que faço com os planos
             D
Dos próximos anos
              D7
Juro que não sei
           Em7
Só sei que eu senti amor
          A7  D  A   D   A
Que pena só eu senti amor

 C     D7     Em  A7
Só eu senti amor

[Solo] G  C


D|--5-7-5-----------------------------------|
B|----------------5--3---------------5--3---|
G|----------5--4-------------2-4-2----------|
D|----------------------5--4----------------|

D|--5-7-5-----------------------------------|
B|----------------5--3---------------5--3---|
G|----------5--4-------------2-4-2----------|
D|----------------------5--4----------------|
00:00 / 00:00
Outros vídeos desta música
Repetir
Outros vídeos desta música
Composição de Brunno Gabryel / Marquinhos de Moraes
Colaboração e revisão:
  • Gabriel Silva
  • Marcus Murta
365.270 exibições
    • ½ Tom
    • A
    • Bb
    • B
    • C
    • Db
    • D
    • Eb
    • E
    • F
    • F#
    • G
    • Ab
  • Adicionar à lista

    0 comentários

    Ver todos os comentários

    Conseguiu tocar?

    33 Tocaram 23 Ainda não

    Grave um vídeo tocando Até Que Durou e nos envie!

    Entre para oCifra Club PRO

    Tenha acesso a benefícios exclusivos no App e no Site

    • Chega de anúncios

    • Prioridade de compra em lançamentos

    • Mais recursos no app do Afinador

    • Atendimento Prioritário

    • Descontos nos produtos Cifra Club

    • Ajude a produzir mais conteúdo

    00:00 / 00:00

    Cifra Club Pro

    Aproveite o Cifra Club com benefícios exclusivos e sem anúncios
    Cifra Club Pro
    Aproveite o Cifra Club com benefícios exclusivos e sem anúncios
    OK