Cifra Club

Até Que Durou

Péricles

Cifra: Principal (violão e guitarra)
Selo Cifra Club: esta cifra foi revisada para atender aos critérios oficiais da nossa Equipe de Qualidade.
tom: C
[Intro] C  G  D 
        G  C  G  D

[Tab - Intro]

Parte 1 de 2
   C           G           D
E|----5-3----------0---------------0--------|
B|----5-----0--------3---------0-----3-----3|
G|----5---5------0-----0---------2-------2--|
D|-----------------------4---4---------4----|
A|-3-----------------------5----------------|
E|-------------3----------------------------|

Parte 2 de 2
   G  C           G           D
E|-------5-3----------0---------------0-----|
B|-0-----5-----0--------3---------0-----3---|
G|-0-----5---5------0-----0---------2-------|
D|-0------------------------4---4-----------|
A|----3-----------------------5-------------|
E|-3--------------3-------------------------|

[Primeira Parte]

[Tab - Primeira Parte]

Parte 1 de 5
   G2
E|------------------------------------------|
B|-3-------3--------3-------3---------------|
G|---2---2---2---2----2---2---2----2--------|
D|-----5-------5--------5--------5----------|
A|------------------------------------------|
E|-3----------------3-----------------------|

Parte 2 de 5
   D4
E|------------------------------------------|
B|-3-------3-------3-------3----------------|
G|---0---0---0---0---0---0---0---0----------|
D|-----4-------4-------4-------4------------|
A|-5---------------5------------------------|
E|------------------------------------------|

Parte 3 de 5
   Bm7
E|------------------------------------------|
B|-3-------3-------3-------2----------------|
G|---2---2---2---2---2---2---2---2----------|
D|-----0-------0-------0-------0------------|
A|-2---------------2------------------------|
E|------------------------------------------|

Parte 4 de 5
   Em7(9)           D4
E|------------------------------------------|
B|-3-------3--------3-------3---------------|
G|---0---0---0---0----0---0---0---0---------|
D|-----4-------4--------4-------4-----------|
A|------------------5-----------------------|
E|-0----------------------------------------|

Parte 5 de 5
   C          D            Bm7       Em7 D
E|-3-2----------3-2------------------0---2--|
B|-3-3-0---1----1-1-0---1--------3---3---3--|
G|-----0-2----------0-2--------2-----0---2--|
D|------------0--------------0-----------0--|
A|-3-----------------------2----------------|
E|-----------------------------------0------|

G2
   Tentei fazer valer a pena
D4
   Passei por cima dos problemas
Bm7
    Achei que eu era o bastante
Em7(9)               D4
       Mas não fui pra você

 C
Tentei ser um cara perfeito
D
  Eu fiz as coisas do seu jeito
Bm7
    Queria ser mais importante
Em7               D
    Mas não fui pra você

[Pré-Refrão]

[Tab - Pré-Refrão]

Parte 1 de 2
   C         B7         Em7         A7
E|--------------------------0----------------|
B|-1-1-1-1---0-0-----0--3---3--3-3--2-2-----2|
G|-0-0-0-0---2-2-----2--0---0--0-0--0-0-----0|
D|-2-2-2-2---1---2------2------2-2--2---2----|
A|-3---3-----2----------------------0--------|
E|-----------------2------0----0----------0--|

Parte 2 de 2
   C           B7         Em7      A7
E|-----0-------------------------------------|
B|-1---1-1-1---0-0-----0--3-3-3-3--2-2-2-2---|
G|-0---0-0-0---2-2-----2--0-0-0-0--0-0-0-0---|
D|-2-----2-2---1---2------2-2-2-2--2-2-2-2---|
A|---3---------2-------------------0---0-----|
E|-------2------------2---0---0--------------|

C            B7
  Até que durou
          Em7
Me diz o porquê
        A7            C
Perdeu tanto tempo aqui
              B7
Te faço um favor
           Em7  A7
Melhor eu sumir

[Refrão]

[Tab - Refrão]

Parte 1 de 5
   C                  D
E|---0-------0--------2---2--2-2---0-2------|
B|-1-1-1-1-1-1-----1--3---3--3-3-3----------|
G|-0-0-0-0-0---0---0--2---2--2-2-2-----2----|
D|-2---2-2-2------------0--------0---0------|
A|-3-------3-----------------0--------------|
E|-----3---------3--------------------------|

Parte 2 de 5
   Em7              A7            A7(4) A7
E|---0--------0------------0--------0-------|
B|-3-3--3-3-3-3-----3--2---2--2-2-3-3-----2-|
G|-0-0--0-0-0---0---0--0---0--0-0-0---0---0-|
D|-2----2-2-2----------2------2-2-2---------|
A|------2----------------0--------0---------|
E|-0--------0-----0-----------0---------0---|

Parte 3 de 5
   C                  D
E|---0-------0--------2---2--2-2---2------2-|
B|-1-1-1-1-1-1-----1--3---3--3-3-3-3------3-|
G|-0-0-0-0-0---0---0--2---2--2-2-2---2------|
D|-2---2-2-2------------0--------0----------|
A|-3-------3-----------------0----------0---|
E|-----3---------3--------------------------|

Parte 4 de 5
   Em7                
E|-------------------------------------------|
B|---3-3-3--3-3-----3------------------------|
G|---0-0-0--0-0-----0------------------------|
D|---2-2-2--2---2----------------------------|
A|-------------------------------------------|
E|---0-0----0-----0--------------------------|

Parte 5 de 5
   A7      A7(4)  A7      A7(4)   C   D
E|-------------2--------------2-------2------|
B|-2-------3---3--2-------3---3---1---3------|
G|-0-----0-0------0-----0-0-------0---2------|
D|-----2--------------2-----------2---0------|
A|---0-------0------0-------0-----3----------|
E|-------------------------------------------|

 C
Fui mais um nas suas mãos
                  D
Não sei se por carência

Ou falta de opção
           Em7
Só sei que eu senti amor
            A7         A7(4)  A7  
Que pena só eu senti amor

C
O que faço com os planos
             D
Dos próximos anos

Juro que não sei
           Em7
Só sei que eu senti amor
            A7     A7(4)  A7  A7(4)
Que pena só eu senti    amor
C    D     
  Só eu senti amor

[Ponte] Em7  D/F#

[Tab - Ponte]
   
   Em7               D/F#
E|-------3-----------------5--------7-------|
B|---0h1----------3------3--------3---------|
G|--------------0------2--------2-----------|
D|------------4-----------------------------|
A|------------------------------------------|
E|-0--------0--------2--------2-------------|

[Primeira Parte]

[Tab - Primeira Parte]

Parte 1 de 2
   C        D/C        Bm7
E|----------2-2--2-2------------------------|
B|-1-1--1---3-3--3-3---3-3--3-3-------------|
G|-0-0--0---2-2--2-2---2-2--2-2-------------|
D|-2-2--2--------------0-0--0-0-------------|
A|-3-3--3---3-3--3-3---2-2--2-2-------------|
E|------------------------------------------|

Parte 2 de 2
   Em7              D  
E|------------------2-2-2-2-2-2-2-2---------|
B|-3-3-3-3-3-3-3-3--3-3-3-3-3-3-3-3---------|
G|-0-0-0-0-0-0-0-0--2-2-2-2-2-2-2-2---------|
D|-2-2-2-2-2-2-2-2--0-----------------------|
A|------------------------------------------|
E|-0----------------------------------------|

 C
Tentei ser um cara perfeito
D/C
    Eu fiz as coisas do seu jeito
Bm7
    Queria ser mais importante
Em7               D
    Mas não fui pra você

[Pré-Refrão]

C            B7
  Até que durou
          Em7
Me diz o porquê
        A7            C
Perdeu tanto tempo aqui
              B7
Te faço um favor
           Em7  A7
Melhor eu sumir

[Refrão]

[Tab - Refrão]

Parte 1 de 7
   C                  D
E|---0-------0--------2---2--2-2---0-2------|
B|-1-1-1-1-1-1-----1--3---3--3-3-3----------|
G|-0-0-0-0-0---0---0--2---2--2-2-2-----2----|
D|-2---2-2-2------------0--------0---0------|
A|-3-------3-----------------0--------------|
E|-----3---------3--------------------------|

Parte 2 de 7
   Em7                 A7         A7(4) A7
E|---0--------0------------0--------0-------|
B|-3-3--3-3-3-3-----3--2---2--2-2-3-3-----2-|
G|-0-0--0-0-0---0---0--0---0--0-0-0---0---0-|
D|-2----2-2-2----------2------2-2-2---------|
A|------2----------------0--------0---------|
E|-0--------0-----0-----------0---------0---|

Parte 3 de 7
   C                  D
E|---0-------0--------2---2--2-2---2------2-|
B|-1-1-1-1-1-1-----1--3---3--3-3-3-3------3-|
G|-0-0-0-0-0---0---0--2---2--2-2-2---2------|
D|-2---2-2-2------------0--------0----------|
A|-3-------3-----------------0----------0---|
E|-----3---------3--------------------------|

Parte 4 de 7
   Em7                
E|-------------------------------------------|
B|---3-3-3--3-3-----3------------------------|
G|---0-0-0--0-0-----0------------------------|
D|---2-2-2--2---2----------------------------|
A|-------------------------------------------|
E|---0-0----0-----0--------------------------|

Parte 5 de 7
   A7      A7(4)  A7      A7(4)   
E|-------------2--------------2--------------|
B|-2-------3---3--2-------2---3--------------|
G|-0-----0-0------0-----0-0------------------|
D|-----2--------------2----------------------|
A|---0-------0------0-------0----------------|
E|-------------------------------------------|

Parte 6 de 7
   C                  B   C  D  C  B7
E|---0-------0-------------------------------|
B|-1-1-1-1-1-1-----1--4---5--7--5--4-4-4-4---|
G|-0-0-0-0-0---0---0--4---5--7--5--2-2-2-2---|
D|-2---2-2-2----------4---5--7--5--4-4-4-4---|
A|-3-------3----------2---3--5--3--2-2-2-2---|
E|-----3---------3---------------------------|

Parte 7 de 7
   A7      A7(4)  A7      A7(4)   C   D
E|-------------2--------------2-------2------|
B|-2-------3---3--2-------2---3---1---3------|
G|-0-----0-0------0-----0-0-------0---2------|
D|-----2--------------2-----------2---0------|
A|---0-------0------0-------0-----3----------|
E|-------------------------------------------|

 C
Fui mais um nas suas mãos
                  D
Não sei se por carência

Ou falta de opção
           Em7
Só sei que eu senti amor
            A7         A7(4) A7
Que pena só eu senti amor

C
O que faço com os planos
             D
Dos próximos anos

Juro que não sei
           Em7
Só sei que eu senti amor
            A7     A7(4) A7  A7(4)
Que pena só eu senti   amor

 C
Fui mais um nas suas mãos
                  D
Não sei se por carência

Ou falta de opção
           Em7
Só sei que eu senti amor
            A7         A7(4)  A7
Que pena só eu senti amor

C
O que faço com os planos
             B
Dos próximos anos
C        D      C  B7             
  Juro que não sei
           Em7
Só sei que eu senti amor
            A7     A7(4) A7  A7(4)
Que pena só eu senti   amor
C    D     
  Só eu senti amor

[Final] C  G  D 
        G  C  G  D

[Tab - Final]

Parte 1 de 2
   C           G           D
E|----5-3----------0---------------0--------|
B|----5-----0--------3---------0-----3-----3|
G|----5---5------0-----0---------2-------2--|
D|-----------------------4---4---------4----|
A|-3-----------------------5----------------|
E|-------------3----------------------------|

Parte 2 de 2
   G  C           G           D
E|-------5-3----------0---------------0-----|
B|-0-----5-----0--------3---------0-----3---|
G|-0-----5---5------0-----0---------2-------|
D|-0------------------------4---4-----------|
A|----3-----------------------5-------------|
E|-3--------------3-------------------------|
00:00 / 00:00
Outros vídeos desta música
Repetir
Outros vídeos desta música
851.394 exibições
  • Simplificar cifra
    • ½ Tom
    • A
    • Bb
    • B
    • C
    • Db
    • D
    • Eb
    • E
    • F
    • F#
    • G
    • Ab
  • Adicionar à lista

Afinação da cifra

Afinador online

    0 comentários

    Ver todos os comentários

    Entre para o Cifra Club PRO

    Tenha acesso a benefícios exclusivos no App e no Site

    • Chega de anúncios

    • Mais recursos no app do Afinador

    • Atendimento Prioritário

    • Aumente seu limite de lista

    • Ajude a produzir mais conteúdo

    00:00 / 00:00
    Capítulos
    • Apresentação
    • Tocando a Música
    • Acordes da Introdução
    • Dicas da Intro
    • Tocando a Introdução
    • Ensinando a Introdução
    • Acordes da Primeira Parte
    • Tocando a Primeira Parte
    • Ensinando a Primeira Parte
    • Acordes do Pré-Refrão
    • Tocando o Pré-Refrão
    • Ensinando o Pré-Refrão
    • Dicas do Refrão
    • Ensinando o Refrão
    • Tocando a Ponte
    • Ensinando a Ponte
    • Dicas das Repetições das Partes
    • Acordes das Repetições
    • Tocando a Variação da Primeira Parte
    • Ensinando a Variação da Primeira Parte
    • Dicas Finais e das Repetições do Refrão
    • Tocando a Repetição do Refrão
    • Ensinando a Repetição do Refrão
    • Encerramento

    Cifra Club Pro

    Aproveite o Cifra Club com benefícios exclusivos e sem anúncios
    Cifra Club Pro
    Aproveite o Cifra Club com benefícios exclusivos e sem anúncios
    OK