Cifra Club

Até Que Durou

Péricles

Cifra: Simplificada (violão e guitarra)
Selo Cifra Club: esta cifra foi revisada para atender aos critérios oficiais da nossa Equipe de Qualidade.
tom: G
[Intro] C  G  D 
        C  G  D

[Tab - Intro]

Parte 1 De 2
   C                G
E|-------0----------------3-----------------|
B|-----1---1---1--------3---3---3-----------|
G|---0-------0---0----0-------0---0---------|
D|------------------------------------------|
A|-3----------------------------------------|
E|------------------3-----------------------|
Parte 2 De 2
   D
E|-------2----------------2-----------------|
B|-----3---3---3--------3---3---3---3-------|
G|---2-------2---2----2-------2---2---2-----|
D|-0----------------0-----------------------|
A|------------------------------------------|
E|------------------------------------------|

[Primeira Parte]

[Tab - Primeira Parte]

Parte 1 De 5
   G
E|-------3----------------3-----------------|
B|-----3---3---3--------3---3---3-----------|
G|---0-------0---0----0-------0---0---------|
D|------------------------------------------|
A|------------------------------------------|
E|-3----------------3-----------------------|

Parte 2 De 5
   D
E|-------2----------------2-----------------|
B|-----3---3---3--------3---3---3---3-------|
G|---2-------2---2----2-------2---2---2-----|
D|-0----------------0-----------------------|
A|------------------------------------------|
E|------------------------------------------|

Parte 3 De 5
   Bm7
E|------------------------------------------|
B|-------3----------------3-----------------|
G|-----2---2---2--------2---2---2-----------|
D|---0-------0---0----0-------0---0---------|
A|-2----------------2-----------------------|
E|------------------------------------------|

Parte 4 De 5
   Em7        D
E|------------------2-----------------------|
B|-------3--------3-------------------------|
G|-----0--------2---------------------------|
D|---2--------0-----------------------------|
A|------------------------------------------|
E|-0----------------------------------------|

Parte 5 De 5
   C                
E|-------0----------------0-----------------|
B|-----1---1---1--------1---1---1-----------|
G|---0-------0---0----0-------0---0---------|
D|------------------------------------------|
A|-3----------------3-----------------------|
E|------------------------------------------|

G
  Tentei fazer valer a pena
D
  Passei por cima dos problemas
Bm7
   Achei que eu era o bastante
Em7              D
   Mas não fui pra você

C
  Tentei ser um cara perfeito
D
  Eu fiz as coisas do seu jeito
Bm7
   Queria ser mais importante
Em7              D
   Mas não fui pra você

[Pré-Refrão]

[Tab - Pré-Refrão]

Parte 1 De 2
   C        B7         Em7        A7
E|------------------------------------------|
B|-1-1-1-1--0-0-----0--3---3-3-3--2-2-----2-|
G|-0-0-0-0--2-2-----2--0---0-0-0--0-0-----0-|
D|-2-2-2-2--1---1------2---2-2-2--2---2-----|
A|-3---3----2-----2---------------0-----0---|
E|-----------------------0---0--------------|

Parte 2 De 2
   C        B7         Em7      A7
E|------------------------------------------|
B|-1-1-1-1--0-0-----0--3-3-3-3--2-2-2-2-----|
G|-0-0-0-0--2-2-----2--0-0-0-0--0-0-0-0-----|
D|-2-2-2-2--1---1------2-2-2-2--2-2-2-2-----|
A|-3---3----2-----2-------------0---0-------|
E|---------------------0---0----------------|

C            B7
  Até que durou
          Em7
Me diz o porque
        A7            C
Perdeu tanto tempo aqui
              B7
Te faço um favor
           Em7  A7
Melhor eu sumir

[Refrão]

[Tab - Refrão]

Parte 1 De 2
   C                  D
E|--------------------2---2--2-2-2-2-----2--|
B|-1-1-1-1-1-1-----1--3---3--3-3-3-3-----3--|
G|-0-0-0-0-0-0-----0--2---2--2-2-2---2------|
D|-2-2-2-2-2---2--------0----0---0-----0----|
A|-3---3---3-----3--------------------------|
E|------------------------------------------|

Parte 2 De 3
   Em7                   A7        A7(4) A7
E|------------------------------------------|
B|-3---3--3-3-3-3-----3--2---2-2-2-3-3-----2|
G|-0---0--0-0-0-0-----0--0---0-0-0-0-0-----0|
D|-2---2--2-2-2---2------2---2-2-2-2---2----|
A|-------------------------0---0---0-----0--|
E|---0----0---0-----0-----------------------|

Parte 3 De 3
   C    D
E|------2-----------------------------------|
B|-1----3-----------------------------------|
G|-0----2-----------------------------------|
D|-2----0-----------------------------------|
A|-3----------------------------------------|
E|------------------------------------------|

 C
Fui mais um nas suas mãos
                  D
Não sei se por carência

Ou falta de opção
           Em7
Só sei que eu senti amor
            A7         A4(7) A7
Que pena só eu senti amor

C
O que faço com os planos
             D
Dos próximos anos

Juro que não sei
           Em7
Só sei que eu senti amor
            A7          A7(4) A
Que pena só eu senti amor
C    D     
  Só eu senti amor

( Em7  D/F# )

[Tab - Ponte]

   Em7              D/F#
E|------------------------------------------|
B|-------3-------3--------3-------3---------|
G|-----0-------0--------2-------2-----------|
D|---2-------2--------0-------0-------------|
A|------------------------------------------|
E|-0-------0--------2-------2---------------|

[Primeira Parte]

[Tab - Primeira Parte]

Parte 1 De 2
   C          D          Bm7
E|------------2-2--2-2----------------------|
B|-1-1--1-1---3-3--3-3---3-3--3-3-----------|
G|-0-0--0-0---2-2--2-2---2-2--2-2-----------|
D|-2-2--2-2---0-0--0-0---0-0--0-0-----------|
A|-3-3--3-3--------------2-2--2-2-----------|
E|------------------------------------------|

Parte 2 De 2
   Em7       D
E|-----------2-2-----3----------------------|
B|-3-3-------3-3-----3----------------------|
G|-0-0-------2---2--------------------------|
D|-2-2-------0-----0------------------------|
A|------------------------------------------|
E|-0----------------------------------------|

C
  Tentei ser um cara perfeito
D
  Eu fiz as coisas do seu jeito
Bm7
   Queria ser mais importante
Em7              D
   Mas não fui pra você

[Pré-Refrão]

C         B7
Até que durou
          Em7
Me diz o porque
        A7            C
Perdeu tanto tempo aqui
              B7
Te faço um favor
           Em7  A7
Melhor eu sumir

[Refrão]

[Tab - Refrão]

Parte 1 De 2
   C                  D
E|--------------------2---2--2-2-2-2-----2--|
B|-1-1-1-1-1-1-----1--3---3--3-3-3-3-----3--|
G|-0-0-0-0-0-0-----0--2---2--2-2-2---2------|
D|-2-2-2-2-2---2--------0----0---0-----0----|
A|-3---3---3-----3--------------------------|
E|------------------------------------------|

Parte 2 De 4
   Em7                   A7        A7(4) A7
E|------------------------------------------|
B|-3---3--3-3-3-3-----3--2---2-2-2-3-3-----2|
G|-0---0--0-0-0-0-----0--0---0-0-0-0-0-----0|
D|-2---2--2-2-2---2------2---2-2-2-2---2----|
A|-------------------------0---0---0-----0--|
E|---0----0---0-----0-----------------------|

Parte 3 De 4
   C                   B7
E|------------------------------------------|
B|-1-1-1-1-1-1-----1---0---0--0-0--0-0-----0|
G|-0-0-0-0-0-0-----0---2---2--2-2--2-2-----2|
D|-2-2-2-2-2---2-------1---1--1-1--1---1----|
A|-3---3---3-----3-------2----2----2-----2--|
E|------------------------------------------|

Parte 4 De 4
   C    D
E|------2-----------------------------------|
B|-1----3-----------------------------------|
G|-0----2-----------------------------------|
D|-2----0-----------------------------------|
A|-3----------------------------------------|
E|------------------------------------------|

 C
Fui mais um nas suas mãos
                  D
Não sei se por carência

Ou falta de opção
           Em7
Só sei que eu senti amor
            A7         A4(7) A7
Que pena só eu senti amor

C
O que faço com os planos
             D
Dos próximos anos

Juro que não sei
           Em7
Só sei que eu senti amor
            A7          A7(4) A
Que pena só eu senti amor

 C
Fui mais um nas suas mãos
                  D
Não sei se por carência

Ou falta de opção
           Em7
Só sei que eu senti amor
            A7         A4(7) A7
Que pena só eu senti amor

C
O que faço com os planos
             B7
Dos próximos anos

Juro que não sei
           Em7
Só sei que eu senti amor
            A7          A7(4) A
Que pena só eu senti amor
C    D     
  Só eu senti amor

[Final] C  G  D 
        C  G  D
Outros vídeos desta música
    114.197 exibições
      • ½ Tom
      • A
      • Bb
      • B
      • C
      • Db
      • D
      • Eb
      • E
      • F
      • F#
      • G
      • Ab
    • Adicionar à lista

    Afinação da cifra

    Afinador online

      0 comentários

      Ver todos os comentários

      Entre para o Cifra Club PRO

      Tenha acesso a benefícios exclusivos no App e no Site

      • Chega de anúncios

      • Badges exclusivas

      • Mais recursos no app do Afinador

      • Atendimento Prioritário

      • Aumente seu limite de lista

      • Ajude a produzir mais conteúdo

      Capítulos
      • Apresentação
      • Tocando a Música
      • Acordes da Música
      • Tocando a Introdução
      • Ensinando a Introdução
      • Dicas da Primeira Parte e Acordes
      • Tocando a Primeira Parte
      • Ensinando a Primeira Parte
      • Acordes do Pré-Refrão
      • Tocando o Pré-Refrão
      • Ensinando o Pré-Refrão
      • Dicas do Refrão 1
      • Tocando o Refrão 1
      • Ensinando o Refrão 1
      • Ensinando o Refrão 2
      • Dicas Finais
      • Acorde da Ponte
      • Tocando a Ponte
      • Ensinando a Ponte
      • Ensinando o Ritmo da Repetição da Primeira Parte
      • Encerramento

      Cifra Club Pro

      Aproveite o Cifra Club com benefícios exclusivos e sem anúncios
      Cifra Club Pro
      Aproveite o Cifra Club com benefícios exclusivos e sem anúncios
      Ops (: Contenido disponible sólo en portugués.
      OK