Cifra Club

Meu Universo

PG

Cifra: Academy-violao (violão e guitarra)
Selo Cifra Club: esta cifra foi revisada para atender aos critérios oficiais da nossa Equipe de Qualidade.
tom: A
[Intro] G9  C7M(9)  G9  C9  D/F#

[Tab - Intro]

    G9
E|------------------------------------------|
B|---------------0--------------------------|
G|-----0-2---2-------2---0------------------|
D|---0-----0---0---0---0--------------------|
A|------------------------------------------|
E|-3----------------------------------------|
   p p i m p i p m p i p i

   C7M(9)
E|------------------------------------------|
B|---------------0--------------------------|
G|-----0-2---2------------------------------|
D|---0-----0---0----------------------------|
A|-3----------------------------------------|
E|------------------------------------------|
   p p i m p i p m

   G9
E|------------------------------------------|
B|---------------0--------------------------|
G|-----0-2---2-------2---0------------------|
D|---0-----0---0---0---0--------------------|
A|------------------------------------------|
E|-3----------------------------------------|
   p p i m p i p m p i p i

       C9              D/F#
E|------------------------------------------|
B|-0-1-3-----1-----0-------3----------------|
G|-------0-----0-----0-2-------2------------|
D|------------------------------------------|
A|-----3---3-----3--------------------------|
E|---------------------2-2------------------|
   m i m i p m i p m i i p m   i

[Primeira Parte]

[Tab - Primeira Parte]

Parte 1 de 4
    G9
E|------------------------------------------|
B|---------------0--------------------------|
G|-----0-2---2-------2---0------------------|
D|---0-----0---0---0---0--------------------|
A|------------------------------------------|
E|-3----------------------------------------|
   p p i m p i p m p i p i

Parte 1 de 4 - Variação
   G9
E|------------------------------------------|
B|---------------0---------0-0-0-0----------|
G|-----0-2---2-------2---0-0-0-0-0----------|
D|---0-----0---0---0---0---0-0-0-0----------|
A|------------------------------------------|
E|-3-----------------------3----------------|
   p p i m p i p m p i p i ↓ ↑ ↓ ↑

Parte 2 de 4
   C7M  
E|------------------------------------------|
B|-0---0-----0-------0-0--------------------|
G|-0---0-----0-----0-0-0-x-x----------------|
D|-2---2---x-----2-2-2-2-x-x----------------|
A|-3-3---x---3---3---3---x-x----------------|
E|-------x----------------------------------|
         p i     ↓ ↑ ↓ ↑ ↓ ↑

Parte 2 de 4 - Variação
   C7M
E|------------------------------------------|
B|-0---0-----0-------0-0--------------------|
G|-0---0-----0-----0-0-0---0----------------|
D|-2---2---x-----2-2-2-2-2-2----------------|
A|-3-3---x---3---3---3---3------------------|
E|-------x----------------------------------|
         p i     ↓ ↑ ↓ ↑ ↓ ↑

Parte 3 de 4
   Am7
E|------------------------------------------|
B|-1---1-----1-------1-1--------------------|
G|-0---0-----0-----0-0-0-x-x----------------|
D|-2---2---x-----2-2-2-2-x-x----------------|
A|-0-0---x---0---0---0---x-x----------------|
E|-------x----------------------------------|
         p i     ↓ ↑ ↓ ↑ ↓ ↑

Parte 4 de 4
   D
E|------------------------------------------|
B|-------3----------------------------------|
G|-----2-----2------------------------------|
D|---4---------4----------------------------|
A|-5----------------------------------------|
E|------------------------------------------|
   p i m a   m i

Parte 4 de 4 - Variação 1
   D             C/E     D/F#
E|------------------------------------------|
B|-------3-------1-------3------------------|
G|-----2-----2---0-------2------------------|
D|---4---------4-2-------0------------------|
A|-5----------------------------------------|
E|---------------0-------2------------------|
   p i m a   m i ↓       ↓

Parte 4 de 4 - Variação 2
   D             C/E     D/F#   
E|------------------------------------------|
B|-------3-------1---1-1-3---3-3------------|
G|-----2-----2---0---0-0-2---2-2------------|
D|---4---------4-2---2-2-0---0-0------------|
A|-5----------------------------------------|
E|---------------0-------2------------------|
   p i m a   m i ↓   ↓ ↑ ↓   ↓ ↑

                  G9
Que sejas meu universo
           C7M                
Não quero dar-te
                    G9
Só um pouco do meu tempo
           Am7              
Não quero dar-te
                    D
Um dia apenas da semana
                  G9
Que sejas meu universo
           C7M                 
Não quero dar-te
                  G9
As palavras como gotas
           Am7                      
Quero que saia um dilúvio de bençãos
          D
Da minha boca

[Refrão]

Am7            D/F#   G
    Que sejas meu universo
           C9               
Que sejas tudo o que sinto
         G
E o que penso
           C9                      Am7
Que de manhã seja o primeiro pensamento
                    D
E a luz em minha janela

Am7            D/F#   G
    Que sejas meu universo
            C9                    G
Que enchas cada um dos meus pensamentos
              C9                           
Que a tua presença
                        Am7
E o teu poder sejam alimento
                      D   
Jesus este é o meu desejo

[Segunda Parte]

                  G9
Que sejas meu universo
           C7M                   
Não quero dar-te
                      G9
Só uma parte dos meus anos
          Am7                 
Te quero dono do meu tempo
       D   
E dos meus planos

                  G9
Que sejas meu universo
          C7M                   
Não quero a minha vontade
           G9
Quero agradar-te
        Am7                    
E cada sonho que há em mim
            D
Quero entregar-te

[Refrão]

Am7            D/F#   G
    Que sejas meu universo
           C9               
Que sejas tudo o que sinto
         G
E o que penso
           C9                      Am7
Que de manhã seja o primeiro pensamento
                    D
E a luz em minha janela

Am7            D/F#   G
    Que sejas meu universo
            C9                    G
Que enchas cada um dos meus pensamentos
              C9                           
Que a tua presença
                        Am7
E o teu poder sejam alimento
                      D   
Jesus este é o meu desejo
                  G9 
Que sejas meu universo
Outros vídeos desta música
    3.595 exibições
      • ½ Tom
      • A
      • Bb
      • B
      • C
      • Db
      • D
      • Eb
      • E
      • F
      • F#
      • G
      • Ab
    • Adicionar à lista

    Afinação da cifra

    Afinador online

      0 comentários

      Ver todos os comentários

      Entre para o Cifra Club PRO

      Tenha acesso a benefícios exclusivos no App e no Site

      • Chega de anúncios

      • Badges exclusivas

      • Mais recursos no app do Afinador

      • Atendimento Prioritário

      • Aumente seu limite de lista

      • Ajude a produzir mais conteúdo

      Capítulos
      • Início
      • Tocando dedilhado da introdução
      • Explicando dedilhado da introdução
      • Acordes da primeira parte
      • Tocando primeira parte#01
      • Ritmo primeira parte#01
      • Tocando primeira parte#02
      • Ritmo primeira parte#02
      • Acordes do refrão
      • Tocando refrão
      • Passagem do terceiro refrão
      • Ritmo da passagem do terceiro refrão
      • Acordes da base do solo
      • Tocando base do solo
      • Encerramento

      Cifra Club Pro

      Aproveite o Cifra Club com benefícios exclusivos e sem anúncios
      Cifra Club Pro
      Aproveite o Cifra Club com benefícios exclusivos e sem anúncios
      Ops (: Contenido disponible sólo en portugués.
      OK