Cifra Club

Black Friday Cifra Club

Sábia Loucura

PG

Cifra: Tablatura (violão e guitarra)
tom: G
(riff 1) (intro / pontes)
E |---------------------------------|---------------------------|
B |---------------------------------|---------------------------|
G |---------------------------------|---------0------------0----|
D |-2---2-------2-------2-----------|-----2------------4--------|
A |-2---2-------2-------2---5---4---|-3------------5------------|
E |-0---0-------0-------0---3---2---|---------------------------|

(riff 2) (versos)
E |--------------------|-----------------------|---------------|-------------|
B |--------------------|-------5---5---5---5---|---------------|-------------|
G |--------------------|-----------------------|---------------|-------------|
D |-2------------------|-2---------------------|-2-------------|-------------|
A |-2------------------|-2---------------------|-2-----5---4---|-5-----7-----|
E |-0-----0---0---3----|-0---------------------|-0-----3---2---|-3-----5-----|

        (2x)
|--------------------|---------------|-------------|
|--------------------|---------------|-------------|
|---------------5----|---------------|-------------|
|-2------------------|-2-------------|-------------|
|-2------------------|-2-----5---4---|-5-----7-----|
|-0-----0---0--------|-0-----3---2---|-3-----5-----|

(riff 3)
E |--------------------------|------------------------------|
B |--------------------------|------------------------------|
G |--------------------------|------------------------------|
D |--------------------------|------------------------------|
A |-7--------------------5---|-5----------------------------|
E |-5----5---8---5---8-------|-----8---7---5---7---8---7----|
00:00 / 00:00
Outros vídeos desta música
Repetir
Outros vídeos desta música
Composição de Johnny Mazza / PG
Colaboração e revisão:
  • Aldo Fernandez
1.362 exibições
    • ½ Tom
    • A
    • Bb
    • B
    • C
    • Db
    • D
    • Eb
    • E
    • F
    • F#
    • G
    • Ab
  • Adicionar à lista

    0 comentários

    Ver todos os comentários

    Entre para oCifra Club PRO

    Tenha acesso a benefícios exclusivos no App e no Site

    • Chega de anúncios

    • Prioridade de compra em lançamentos

    • Mais recursos no app do Afinador

    • Atendimento Prioritário

    • Descontos nos produtos Cifra Club

    • Ajude a produzir mais conteúdo

    00:00 / 00:00

    Cifra Club Pro

    Aproveite o Cifra Club com benefícios exclusivos e sem anúncios
    Cifra Club Pro
    Aproveite o Cifra Club com benefícios exclusivos e sem anúncios
    OK