Cifra Club

Money

Pink Floyd

Cifra: Solo
exibições 25.515
Tom: A
Solo 1:

E|------------------------------------------|
B|----------10b12~----7-10------------------|
G|-9b--7~~-----------------9b--7~~----------|
D|------------------------------------------|
A|------------------------------------------|
E|------------------------------------------|

E|-------10----------------12b14r12p10------|
B|-10/12----12-12~---12-12-------------12~--|
G|------------------------------------------|
D|------------------------------------------|
A|------------------------------------------|
E|------------------------------------------|

E|---------------------------7-------10-12--|
B|-------------------------7---10/12--------|
G|-9b--7--9-----------9b11------------------|
D|-----------9~~----------------------------|
A|------------------------------------------|
E|------------------------------------------|

E|-b14r12--------10----b14~r----10--12------|
B|--------12-12~----------------------------|
G|------------------------------------------|
D|------------------------------------------|
A|------------------------------------------|
E|------------------------------------------|

E|------------------------------------------|
B|-12b--10b---------------------------------|
G|-----------9b--7b-------------------------|
D|-------------------9b--7b-----------------|
A|---------------------------\7b--5b--------|
E|------------------------------------7-7---|

E|------------------------------7-----------|
B|----------------------------7---10b12~----|
G|---------------7b------9b11---------------|
D|-----7~--9p7------9~----------------------|
A|-7/9---------9----------------------------|
E|------------------------------------------|

E|----------10--12--b14r12p10---------------|
B|-b12-b12--------------------12-12~\-------|
G|------------------------------------------|
D|------------------------------------------|
A|------------------------------------------|
E|------------------------------------------|

E|-14b16--14--12--10------------------------|
B|--------------------12--10----------------|
G|----------------------------\9--9b11~~----|
D|------------------------------------------|
A|------------------------------------------|
E|------------------------------------------|

E|------------------------------------------|
B|-10b12--10--8--7--------------------------|
G|------------------9--7--------------------|
D|------------------------11--10--9-9~~-----|
A|------------------------------------------|
E|------------------------------------------|
E|------------------------------------------|
B|-7b--------9b--------/10-10-10...---------|
G|-7b--------9b--------/11-11-11...---------|
D|------9~~-------9~~-----------------------|
A|------------------------------------------|
E|------------------------------------------|


Solo 2:

E|---------7------7---------------------10--|
B|---------7------7-----10b12--b12-b12~-----|
G|-9b11-------------------------------------|
D|------------------------------------------|
A|------------------------------------------|
E|------------------------------------------|

E|-7----------------------------------------|
B|-7----------------------------------------|
G|--------9b11~r--7-9----------7b-----------|
D|--------------------9-9~-----7b------7h9--|
A|------------------------------------------|
E|------------------------------------------|

E|------------------------------------------|
B|-----------7-----7------------------------|
G|-9b11------9b11--9b11~--------------------|
D|------------------------------------------|
A|------------------------------------------|
E|------------------------------------------|

E|------------------------------------------|
B|------------------------------------------|
G|-9b11r9p7--9b12--9b11~r9p7-7b8r7b9~r7-----|
D|--------------------------------------9~--|
A|------------------------------------------|
E|------------------------------------------|

E|-------10---------10-12b14-12b14~r--12p10-|
B|-10/12---------12-------------------------|
G|------------------------------------------|
D|------------------------------------------|
A|------------------------------------------|
E|------------------------------------------|

E|------------------------------------------|
B|-10-10--10--------------------------------|
G|-----------9/11~------b11rb11~~-----------|
D|------------------------------------------|
A|------------------------------------------|
E|------------------------------------------|

E|------------------------------------------|
B|-10b12--10--8--7--------------------------|
G|------------------9--7--------------------|
D|------------------------11--10--9-9~~-----|
A|------------------------------------------|
E|------------------------------------------|
E|------------------------------------------|
B|-7b--------9b--------/10-10-10...---------|
G|-7b--------9b--------/11-11-11...---------|
D|------9~~-------9~~-----------------------|
A|------------------------------------------|
E|------------------------------------------|



Solo 3:

E|------------------------------------------|
B|--------------15-17-17b19r17b19~-17-19----|
G|--------14-16--------------------------16~|
D|-14/16------------------------------------|
A|------------------------------------------|
E|------------------------------------------|

E|----22b24r--19-22--22---------------------|
B|-19-------------------22b24~--------------|
G|----~-------------------------------------|
D|------------------------------------------|
A|------------------------------------------|
E|------------------------------------------|

E|--------14--------------------------------|
B|-----15----15b17r15-------17br--b19r-15---|
G|-/16----------------16~-------------------|
D|------------------------------------------|
A|------------------------------------------|
E|------------------------------------------|

E|------------------------------------------|
B|-------------------------------15---------|
G|-16------------------------/16----16~-----|
D|------\14--12--14--14b16~-----------------|
A|------------------------------------------|
E|------------------------------------------|

E|----22b24r--19-22--22---------------------|
B|-19-------------------22b24-2b24~r--22brbr|
G|------------------------------------------|
D|------------------------------------------|
A|------------------------------------------|
E|------------------------------------------|

E|------------------------------------------|
B|-19-----------19----19-----22b24--22b24~--|
G|-21b23--19~~--21b23-21b23-----------------|
D|------------------------------------------|
A|------------------------------------------|
E|------------------------------------------|

E|-22-------------22n24r--19-22--22---------|
B|----22b24~---19-------------------22n24~--|
G|------------------------------------------|
D|------------------------------------------|
A|------------------------------------------|
E|------------------------------------------|

E|------------------------------------------|
B|-19-22-----19-----------------------------|
G|-------21b----19~-------------------------|
D|---------------------21p19----19b---------|
A|---------------------------21------21~----|
E|------------------------------------------|

E|------------------------------------------|
B|-10b12--10--8--7--------------------------|
G|------------------9--7--------------------|
D|------------------------11--10--9-9~~-----|
A|------------------------------------------|
E|------------------------------------------|
Acordes para:
    Composição: Roger WatersColaboração e revisão:
    • Vinícius Dias
    • Bruno Hoffmann

    0 comentários

      mostrar mais comentários

      Conseguiu tocar?

      1tocaram0ainda não

      Grave um vídeo tocando Money e mande pra gente!

      00:00 / 00:00
      outros vídeos desta música
      repetirqualidadeautomática
      Outro vídeos desta música
        00:00 / 00:00
        automática
        Capítulos
        • Tocando Solo
        • Configuração do pedal
        • Solo 1 - Parte 1
        • Solo 1 - Parte 2
        • Solo 1 - Parte 3
        • Solo 1 - Parte 4
        • Solo 1 - Parte 5
        • Solo 1 - Parte 6
        • Solo 1 - Parte 7
        • Solo 1 - Parte 8
        • Solo 1 - Parte 9
        • Solo 1 - Parte 10
        • Tocando Solo 2
        • Solo 2 - Parte 1
        • Solo 2 - Parte 2
        • Solo 2 - Parte 3
        • Solo 2 - Parte 4
        • Solo 2 - Parte 5
        • Solo 2 - Parte 6
        • Solo 2 - Parte 7
        • Solo 2 - Parte 8
        • Tocando Solo 3
        • Solo 3 - Parte 1
        • Solo 3 - Parte 2
        • Solo 3 - Parte 3
        • Solo 3 - Parte 4
        • Solo 3 - Parte 5
        • Solo 3 - Parte 6
        • Solo 3 - Parte 7
        • Solo 3 - Parte 8
        • Solo 3 - Parte 9
        • Encerramento
        OK