Cifra Club

Mother

Pink Floyd

Cifra: Solo
exibições 66.782
Tom: G
E|------------------------------------------|
B|----13b15~~--13b15r13p12-13~--------------|
G|-12----------------------------9\7-9~-----|
D|------------------------------------------|
A|------------------------------------------|
E|------------------------------------------|

E|------------------------------------------|
B|------------------------------------------|
G|----5----5p4------------------------------|
D|-/5----x----------------------------------|
A|-------------5~\---3p2-3~---3/5\3~--------|
E|------------------------------------------|

E|----------------------------------8-------|
B|----8---10b12r--b12~---10b12r10p8---------|
G|-/7---7------------------------------9\7/9|
D|------------------------------------------|
A|------------------------------------------|
E|------------------------------------------|

E|-10-12b14r--10~------10b12r--10~----------|
B|-------------------8----------------------|
G|------------------------------------------|
D|------------------------------------------|
A|------------------------------------------|
E|------------------------------------------|

E|-8-7-8p7----------------------------------|
B|---------8--------------------------------|
G|-----------7-5p4--------------------------|
D|-----------------5~\----------------------|
A|------------------------------------------|
E|------------------------------------------|
Acordes para:
    Composição: Roger WatersColaboração e revisão:
    • Vinícius Dias
    • Paulo M
    • eder jr

    0 comentários

      mostrar mais comentários

      Conseguiu tocar?

      1tocaram1ainda não

      Grave um vídeo tocando Mother e mande pra gente!

      00:00 / 00:00
      outros vídeos desta música
      repetirqualidadeautomática
      Outro vídeos desta música
        00:00 / 00:00
        automática
        Capítulos
        • Tocando Solo
        • Apresentação / Equipamentos
        • Configuração pedal
        • Solo - Parte 1
        • Solo - Parte 2
        • Solo - Parte 3
        • Solo - Parte 4
        • Solo - Parte 5
        • Encerramento
        OK