Cifra Club

AOV

Slipknot

Cifra: Principal
exibições 3.445
Tom: E
B |------------------------------------------------------|
F#|------------------------------------------------------|
B |------------------------------------------------------|
E |------------------------------------------------------|
G#|-----^------------------------^-----------------------|
C#|--13-12-000000-10-00-15-00-13-12-000000-10-00-15-00---|
           ******    **    **       ******    **    **

B |-----------------------------------------------------------------------------|
F#|-----------------------------------------------------------------------------|
B |-----------------------------------------------------------------------------|
E |----------------------------------------------------/------------------------|
G#|---^------------------------^---------------------12-13-12-------------------|
C#|-13-12-000000-10-00-12-00-12-13-13-13-13-13-13-13----------15-13-15-13-12-13-|
          ******    **    **        *  *  *  *  *  *           *  *  *  *  *  *

B |------------------------------------------------------|
F#|------------------------------------------------------|
B |------------------------------------------------------|
E |------------------------------------------------------|
G#|-----^------------------------^-----------------------|
C#|--13-12-000000-10-00-15-00-13-12-000000-10-00-15-00---|
           ******    **    **       ******    **    **

B |-----------------------------------------------------------------------------|
F#|-----------------------------------------------------------------------------|
B |-----------------------------------------------------------------------------|
E |----------------------------------------------------/------------------------|
G#|---^------------------------^---------------------12-13-12-------------------|
C#|-13-12-000000-10-00-12-00-12-13-13-13-13-13-13-13----------15-13-15-13-12-13-|
          ******    **    **        *  *  *  *  *  *           *  *  *  *  *  *

0:18

L
B |--------------------------------------------------------------------|
F#|--------------------------------------------------------------------|
B |--------------------------------------------------------------------|
E |--------------------------------------------------------------------|
G#|---^--------------/----------------^--------------/-----------------|
C#|-13-12-00000000-12-14-15-14-12-14-13-12-00000000-12-15-17-15-14-15--|
          ********                         ********
R
B |----------------------------------------------------|
F#|----------------------------------------------------|
B |----------------------------------------------------|
E |----------------------------------------------------|
G#|--^------------/----------^------------/------------|
C#|-1-0-00000000-0-2-3-2-0-2-1-0-00000000-0-3-5-3-2-3--|
        ********                 ********

L
B |---------------------------------------------------------------------|
F#|---------------------------------------------------------------------|
B |---------------------------------------------------------------------|
E |---------------------------------------------------------------------|
G#|------------------/----------------^--------------/------------------|
C#|-1412-00000000-12-14-15-14-12-14-13-12-00000000-12-15-17-15-14-15----|
         ********                         ********
R
B |------------------------------------------------------|
F#|------------------------------------------------------|
B |------------------------------------------------------|
E |------------------------------------------------------|
G#|--^------------/----------^------------/--------------|
C#|-2-0-00000000-0-2-3-2-0-2-1-0-00000000-0-3-5-3-2-3----|
        ********                 ********

L
B |-------------------------------------------------------------------|
F#|-------------------------------------------------------------------|
B |-------------------------------------------------------------------|
E |-------------------------------------------------------------------|
G#|------------------/----------------^--------------/----------------|
C#|-1412-00000000-12-14-15-14-12-14-13-12-00000000-12-15-17-15-14-15--|
         ********                         ********
R
B |--------------------------------------------------------|
F#|--------------------------------------------------------|
B |--------------------------------------------------------|
E |--------------------------------------------------------|
G#|--^------------/----------^------------/----------------|
C#|-2-0-00000000-0-2-3-2-0-2-1-0-00000000-0-3-5-3-2-3------|
        ********                 ********

L
B |-------------------------------------------------------------------|
F#|-------------------------------------------------------------------|
B |-------------------------------------------------------------------|
E |-------------------------------------------------------------------|
G#|------------------/----------------^--------------/----------------|
B |-1412-00000000-12-14-15-14-12-14-13-12-00000000-12-15-17-15-14-15--|
         ********                         ********
R
B |--------------------------------------------------------|
F#|--------------------------------------------------------|
B |--------------------------------------------------------|
E |--------------------------------------------------------|
G#|--^------------/----------^------------/----------------|
C#|-2-0-00000000-0-2-3-2-0-2-1-0-00000000-0-3-5-3-2-3------|
        ********                 ********

L
B |--------------------------------------------------------------------|
F#|--------------------------------------------------------------------|
B |--------------------------------------------------------------------|
E |--------------------------------------------------------------------|
G#|------------------/----------------^--------------/-----------------|
C#|-1412-00000000-12-14-15-14-12-14-13-12-00000000-12-15-17-15-14-15---|
         ********                         ********
R
B |--------------------------------------------------------|
F#|--------------------------------------------------------|
B |--------------------------------------------------------|
E |--------------------------------------------------------|
G#|--^------------/----------^------------/-----------^----|
B |-2-0-00000000-0-2-3-2-0-2-1-0-00000000-0-3-5-3-2-3-1-0--|
        ********                 ********
L
B |---------------------------------------------------------------------|
F#|---------------------------------------------------------------------|
B |---------------------------------------------------------------------|
E |---------------------------------------------------------------------|
G#|------------------/----------------^--------------/------------------|
C#|-1412-00000000-12-14-15-14-12-14-13-12-00000000-12-15-17-15-14-15----|
         ********                         ********
R
B |--------------------------------------------------------|
F#|--------------------------------------------------------|
B |--------------------------------------------------------|
E |--------------------------------------------------------|
G#|--^------------/----------^------------/----------------|
C#|-2-0-00000000-0-2-3-2-0-2-1-0-00000000-0-3-5-3-2-3------|
        ********                 ********
L
B |-------------------------------------------------------------------|
F#|-------------------------------------------------------------------|
B |-------------------------------------------------------------------|
E |-------------------------------------------------------------------|
G#|------------------/-----------------^--------------/---------------|
C#|-1412-00000000-12-14-15-14-12-14-13-12-00000000-12-15-17-15-14-15--|
         ********                         ********
R
B |--------------------------------------------------------|
F#|--------------------------------------------------------|
B |--------------------------------------------------------|
E |--------------------------------------------------------|
G#|--^------------/----------^------------/----------------|
C#|-2-0-00000000-0-2-3-2-0-2-1-0-00000000-0-3-5-3-2-3------|
        ********                 ********

L
B |-------------------------------------------------|
F#|-------------------------------------------------|
B |-------------------------------------------------|
E |-------------------------------------------------|
G#|------------------/--------------8----7---11----|
C#|-1412-00000000-12-14-15-14-12-14-8----7---11----|
         ********                        
R 
B |-------------------------------------------------|
F#|-------------------------------------------------|
B |-------------------------------------------------|
E |-------------------------------------------------|
G#|--^------------/-----------8----7-----11---------|
C#|-2-0-00000000-0-2-3-2-0-2--8----7-----11---------|
        ********

0:47

B |--------------------------------------------------------------------------------|
F#|--------------------------------------------------------------------------------|
B |-----------------------------7-10-----------------------------------3-6---------|
E |----------/------/---------5-8-----------------/------/-------------1-4---------|
G#|-1-0-----5-8-5-0-5-6-5-1-0---5/8----8---1-0-----5-8-5-0-5-6-5-1-0---1/4---4-----|
C#|-1-0-0-0---------5-6-5-1-0-0------0-8-0-1-0-0-0---------5-6-5-1-0-0-----0-4-0---|
        * *                   *      *   *     * *                   *     *   *

B |--------------------------------------------------------------------------------|
F#|--------------------------------------------------------------------------------|
B |-----------------------------7-10-----------------------------------3-6---------|
E |----------/------/-----------5-8----------------/-----/-------------1-4---------|
G#|-1-0-----5-8-5-0-5-6-5-1-0---5/8----8---1-0-----5-8-5-0-5-6-5-1-0---1/4---4-----|
C#|-1-0-0-0---------5-6-5-1-0-0------0-8-0-1-0-0-0---------5-6-5-1-0-0-----0-4-0---|
        * *                   *      *   *     * *                   *     *   *

1:02

B |--------------------------------------------------------------|
F#|--------------------------------------------------------------|
B |--------------------------------------------------------------|
E |--------------------------------------------------------------|
G#|-5-5-5-5-5-5---8--8-8-8-8-10-8-1--1-1-1-1-3-1-0--0---4--4-----|
C#|-5-5-5-5-5-5-0-8--8-8-8-8-10-8-1--1-1-1-1-3-1-0--0-0-4--4-0---|
                *                                     *      *

B |---------------------------------------------------------------|
F#|---------------------------------------------------------------|
B |---------------------------------------------------------------|
E |---------------------------------------------------------------|
G#|-5--5-5-5-5-5---8--8-8-8-8-10-8-1--1-1-1-1-3-1-0--0---4--4-4---|
C#|-5--5-5-5-5-5-0-8--8-8-8-8-10-8-1--1-1-1-1-3-1-0--0-0-4--4-4-0-|
                 *                                     *        *
1:16

L
B |-------------------------------------------------------------------|
F#|-------------------------------------------------------------------|
B |-------------------------------------------------------------------|
E |-8--8--8-12--8-7-8-10-12-10--8-7--8--8--8-12--8-7--8-10-12-10--8-7-|
G#|-5--5--5--8--5-3-5--7--8--7--5-3--5--5--5--8--5-3--5--7--8--7--5-3-|
C#|-5--5--5--8--5-3-5--7--8--7--5-3--5--5--5--8--5-3--5--7--8--7--5-3-|
            /-----------                     /
R
B |-------------------------------------------------------------------|
F#|-------------------------------------------------------------------|
B |-------------------------------------------------------------------|
E |-------------------------------------------------------------------|
G#|-5--5--5--8--5-3-5--7--8--7--5-3--5--5--5--8--5-3-5--7--8--7--5-3--|
C#|-5--5--5--8--5-3-5--7--8--7--5-3--5--5--5--8--5-3-5--7--8--7--5-3--|
            /-----------                     /

1:24

B |------------------------------------------------------|
F#|------------------------------------------------------|
B |------------------------------------------------------|
E |------------------------------------------------------|
G#|-----^------------------------^-----------------------|
C#|---13-12-000000-10-00-15-00-13-12-000000-10-00-15-00--|
            ******    **    **       ******    **    **

B |-----------------------------------------------------------------------------|
F#|-----------------------------------------------------------------------------|
B |-----------------------------------------------------------------------------|
E |----------------------------------------------------/------------------------|
G#|---^------------------------^---------------------12-13-12-------------------|
C#|-13-12-000000-10-00-12-00-12-13-13-13-13-13-13-13----------15-13-15-13-12-13-|
          ******    **    **        *  *  *  *  *  *           *  *  *  *  *  *

L
B |--------------------------------------------------------------------|
F#|--------------------------------------------------------------------|
B |--------------------------------------------------------------------|
E |--------------------------------------------------------------------|
G#|---^--------------/----------------^--------------/-----------------|
C#|-13-12-00000000-12-14-15-14-12-14-13-12-00000000-12-15-17-15-14-15--|
          ********                         ********
R
B |----------------------------------------------------|
F#|----------------------------------------------------|
B |----------------------------------------------------|
E |----------------------------------------------------|
G#|--^------------/----------^------------/------------|
C#|-1-0-00000000-0-2-3-2-0-2-1-0-00000000-0-3-5-3-2-3--|
        ********                 ********

L                                
B |----------------------------------------------------------------------|
F#|----------------------------------------------------------------------|
B |----------------------------------------------------------------------|
E |----------------------------------8-8-8-8-8-8-8-8-7-7-7-7-11-11-11-11-|
G#|------------------/---------------------------------------------------|
C#|-1412-00000000-12-14-15-14-12-14--------------------------------------|
          ********                   * * * * * * * * * * * *  *  *  *  * 
R
B |---------------------------------------------------------------|
F#|---------------------------------------------------------------|
B |---------------------------------------------------------------|
E |---------------------------------------------------------------|
G#|--^------------/-----------------------------------------------|
C#|-2-0-00000000-0-2-3-2-0-2-8-8-8-8-8-8-8-8-7-7-7-7-11-11-11-11--|
        ********             * * * * * * * * * * * *  *  *  *  *   

L
B |--------------------------------------------------------------------|
F#|--------------------------------------------------------------------|
B |--------------------------------------------------------------------|
E |--------------------------------------------------------------------|
G#|---^--------------/----------------^--------------/-----------------|
C#|-13-12-00000000-12-14-15-14-12-14-13-12-00000000-12-15-17-15-14-15--|
          ********                         ********
R
B |----------------------------------------------------|
F#|----------------------------------------------------|
B |----------------------------------------------------|
E |----------------------------------------------------|
G#|--^------------/---------^------------/-------------|
C#|-1-0-00000000-0-2-3-2-0-2-1-0-00000000-0-3-5-3-2-3--|
        ********                 ********

L                            
B |-------------------------------------------------------------------|
F#|-------------------------------------------------------------------|
B |-------------------------------------------------------------------|
E |----------------------------------8-8-8-8-8-8-8-8-7-7-7-7-3-3-3-3--|
G#|------------------/------------------------------------------------|
C#|-1412-00000000-12-14-15-14-12-14-----------------------------------|
          ********                   * * * * * * * * * * * * * * * *    
R
B |-----------------------------------------------------------|
F#|-----------------------------------------------------------|
B |-----------------------------------------------------------|
E |-----------------------------------------------------------|
G#|--^------------/-------------------------------------------|
C#|-2-0-00000000-0-2-3-2-0-2-8-8-8-8-8-8-8-8-7-7-7-7-3-3-3-3--|
        ********             * * * * * * * * * * * * * * * * 
L
B |--------------------------------------------------------------------|
F#|--------------------------------------------------------------------|
B |--------------------------------------------------------------------|
E |--------------------------------------------------------------------|
G#|---^--------------/----------------^--------------/-----------------|
C#|-13-12-00000000-12-14-15-14-12-14-13-12-00000000-12-15-17-15-14-15--|
          ********                         ********
R
B |----------------------------------------------------|
F#|----------------------------------------------------|
B |----------------------------------------------------|
E |----------------------------------------------------|
G#|--^------------/----------^------------/------------|
C#|-1-0-00000000-0-2-3-2-0-2-1-0-00000000-0-3-5-3-2-3--|
        ********                 ********

L                              
B |----------------------------------------------------------------------|
F#|----------------------------------------------------------------------|
B |----------------------------------------------------------------------|
E |----------------------------------8-8-8-8-8-8-8-8-7-7-7-7-11-11-11-11-|
G#|------------------/---------------------------------------------------|
C#|-1412-00000000-12-14-15-14-12-14--------------------------------------|
          ********                   * * * * * * * * * * * *  *  *  *  * 
R
B |---------------------------------------------------------------|
F#|---------------------------------------------------------------|
B |---------------------------------------------------------------|
E |---------------------------------------------------------------|
G#|--^------------/-----------------------------------------------|
C#|-2-0-00000000-0-2-3-2-0-2-8-8-8-8-8-8-8-8-7-7-7-7-11-11-11-11--|
        ********             * * * * * * * * * * * *  *  *  *  *   
L
B |--------------------------------------------------------------------|
F#|--------------------------------------------------------------------|
B |--------------------------------------------------------------------|
E |--------------------------------------------------------------------|
G#|---^--------------/----------------^--------------/-----------------|
C#|-13-12-00000000-12-14-15-14-12-14-13-12-00000000-12-15-17-15-14-15--|
          ********                         ********
R
B |----------------------------------------------------|
F#|----------------------------------------------------|
B |----------------------------------------------------|
E |----------------------------------------------------|
G#|--^------------/----------^------------/------------|
C#|-1-0-00000000-0-2-3-2-0-2-1-0-00000000-0-3-5-3-2-3--|
        ********                 ********
L                                
B |---------------------------------------------------|
F#|---------------------------------------------------|
B |---------------------------------------------------|
E |---------------------------------------------------|
G#|------------------/---------------8---7---11-------|
C#|-1412-00000000-12-14-15-14-12-14--8---7---11-------|
         ********                   
R
B |---------------------------------------------------|
F#|---------------------------------------------------|
B |---------------------------------------------------|
E |---------------------------------------------------|
G#|--^------------/---------------8---7---11----------|
C#|-2-0-00000000-0-2-3-2-0-2--8---7---11--------------|
        ********               

2:00

B |--------------------------------------------------------------------------------|
F#|--------------------------------------------------------------------------------|
B |-----------------------------7-10-----------------------------------3-6---------|
E |----------/-----/------------5-8----------------/------/------------1-4---------|
G#|-1-0-----5-8-5-0-5-6-5-1-0---5/8----8---1-0-----5-8-5-0-5-6-5-1-0---1/4---4-----|
C#|-1-0-0-0---------5-6-5-1-0-0------0-8-0-1-0-0-0---------5-6-5-1-0-0-----0-4-0---|
        * *                   *      *   *     * *                   *     *   *

2:14

B |--------------------------------------------------------------|
F#|--------------------------------------------------------------|
B |--------------------------------------------------------------|
E |--------------------------------------------------------------|
G#|-5-5-5-5-5-5---8--8-8-8-8-10-8-1--1-1-1-1-3-1-0--0---4--4-----|
C#|-5-5-5-5-5-5-0-8--8-8-8-8-10-8-1--1-1-1-1-3-1-0--0-0-4--4-0---|
                *                                     *      *

B |---------------------------------------------------------------|
F#|---------------------------------------------------------------|
B |---------------------------------------------------------------|
E |---------------------------------------------------------------|
G#|-5--5-5-5-5-5---8--8-8-8-8-10-8-1--1-1-1-1-3-1-0--0---4--4-4-4-|
C#|-5--5-5-5-5-5-0-8--8-8-8-8-10-8-1--1-1-1-1-3-1-0--0-0-4--4-4-4-|
                 *                                     *        

2:28

B |----------------------------------------------------------------------------------|
F#|----------------------------------------------------------------------------------|
B |----------------------------------------------------------------------------------|
E |----------------------------------------------------------------------------------|
G#|----------------------------------------------------------------------------------|
C#|-5-5-5-5-5-5-5-8-8-8-8-8-8-10-8-13-13-13-13-13-13-13-13-12-12-12-12-12-12-12-12/-|
                                               
B |----------------------------------------------------------------------------------|
F#|----------------------------------------------------------------------------------|
B |----------------------------------------------------------------------------------|
E |----------------------------------------------------------------------------------|
G#|-5-5-5-5-5-5-5-8-8-8-8-8-8-10-8-13-13-13-13-13-13-13-13-12-12-12-12-12-12-12-12---|
C#|-5-5-5-5-5-5-5-8-8-8-8-8-8-10-8-13-13-13-13-13-13-13-13-12-12-12-12-12-12-12-12---|
                                               
L
B |-------------------------------------------------------------------|
F#|-------------------------------------------------------------------|
B |-------------------------------------------------------------------|
E |-8--8--8-12--8-7-8-10-12-10--8-7--8--8--8-12--8-7--8-10-12-10--8-7-|
G#|-5--5--5--8--5-3-5--7--8--7--5-3--5--5--5--8--5-3--5--7--8--7--5-3-|
C#|-5--5--5--8--5-3-5--7--8--7--5-3--5--5--5--8--5-3--5--7--8--7--5-3-|
           /-----------                     /
R
B |-------------------------------------------------------------------|
F#|-------------------------------------------------------------------|
B |-------------------------------------------------------------------|
E |-------------------------------------------------------------------|
G#|-5--5--5--8--5-3-5--7--8--7--5-3--5--5--5--8--5-3-5--7--8--7--5-3--|
C#|-5--5--5--8--5-3-5--7--8--7--5-3--5--5--5--8--5-3-5--7--8--7--5-3--|
           /-----------                     /

2:44

B |------------------------------------------------------|
F#|------------------------------------------------------|
B |------------------------------------------------------|
E |------------------------------------------------------|
G#|-----^------------------------^-----------------------|
C#|---13-12-000000-10-00-15-00-13-12-000000-10-00-15-00--|
            ******    **    **       ******    **    **

B |-----------------------------------------------------------------------------|
F#|-----------------------------------------------------------------------------|
B |-----------------------------------------------------------------------------|
E |----------------------------------------------------/------------------------|
G#|---^------------------------^---------------------12-13-12-------------------|
C#|-13-12-000000-10-00-12-00-12-13-13-13-13-13-13-13----------15-13-15-13-12-13-|
          ******    **    **        *  *  *  *  *  *           *  *  *  *  *  *

B |------------------------------------------------------|
F#|------------------------------------------------------|
B |------------------------------------------------------|
E |------------------------------------------------------|
G#|-----^------------------------^-----------------------|
C#|---13-12-000000-10-00-15-00-13-12-000000-10-00-15-00--|
            ******    **    **       ******    **    **

B |----------------------------------------------------------------------------|
F#|----------------------------------------------------------------------------|
B |----------------------------------------------------------------------------|
E |----------------------------------------------------------------------------|
G#|---^------------------------^-----------------------^-----------------------|
C#|-13-12-000000-10-00-12-00-12-13-13-13-13-13-13-13-12-13-13-13-13-13-13-13---|
          ******    **    **        *  *  *  *  *  *        *  *  *  *  *  *

L
B |---------------------------------------|
F#|---------------------------------------|
B |---------------------------------------|
E |------------------/--------------------|
G#|--^--------------0-1-0-----------------|
C#|-0-1-1-1-1-1-1-1-------1-1-3-3-1-1-0---|
        * * * * * *       * * * * * * *
R
B |---------------------------------------------------------|
F#|---------------------------------------------------------|
B |---------------------------------------------------------|
E |----------------------------/----------------------------|
G#|----^---------------------12-13-12-----------------------|
C#|--12-13-13-13-13-13-13-13----------13-13-15-15-13-13-12--|
            *  *  *  *  *  *           *  *  *  *  *  *  *

3:01
GT 2 preenchimento
B |-----------|
F#|----10-----|
B |-12--------|
E |-----------|
G#|-----------|
C#|-----------|
  
Fades In
B |-------------------------------------------------------------------------------------|
F#|---------------)(--^----------------)(--^--------------------------------------------|
B |----2---------2---0-2-----2--------2---0-2---0----------)(--^-----2------------------|
E |-0---------0-------------------------------------------2---0-2----------0-2-3-2-0-2--|
G#|-----------------------3--------3----------1--------1----------3---------------------|
C#|-------------------------------------------------------------------------------------|

B |-------------------------------------------------------------------------------------|
F#|---------------)(--^----------------)(-----------------------------------------------|
B |----2---------2---0-2-----2--------2------2---0---------)(--^-----2------------------|
E |-0---------0-------------------------------------------2---0-2----------0-2-3-2-0-2--|
G#|-----------------------3--------3------3----1--------1----------3--------------------|
C#|-------------------------------------------------------------------------------------|

B |-------------------------------------------------------------------------------------------------|
F#|-------------------------------------------------------------------------------------------------|
B |-------------------------------------------------------------------------------------------------|
E |-------------------------------------------------------------------------------------------------|
G#|-------------------------------------------------------------------------------------------------|
C#|-12-12-12-12-12-12-12-12-12-12-12-12-12-12-12-12-10-10-10-10-10-10-10-10-10-10-10-10-10-10-10-10-|

B |-------------------------------------------------------------------------|
F#|-------------------------------------------------------------------------|
B |-------------------------------------------------------------------------|
E |-------------------------------------------------------------------------|
G#|-------------------------------------------------------------------------|
C#|-8-8-8-8-8-8-8-8-8-8-8-8-8-8-8-8-7-7-7-7-7-7-7-7-11-11-11-11-11-11-11-11-|

B |-------------------------------------------------------------------------------------------------|
F#|-------------------------------------------------------------------------------------------------|
B |-------------------------------------------------------------------------------------------------|
E |-------------------------------------------------------------------------------------------------|
G#|-------------------------------------------------------------------------------------------------|
C#|-12-12-12-12-12-12-12-12-12-12-12-12-12-12-12-12-10-10-10-10-10-10-10-10-10-10-10-10-10-10-10-10-|

B |----------------------------------------------------------------------------|
F#|----------------------------------------------------------------------------|
B |----------------------------------------------------------------------------|
E |----------------------------------------------------------------------------|
G#|----------------------------------------------------------------------------|
C#|-8-8-8-8-8-8-8-8-8-8-8-8-8-8-8-8-7-7-7-7-7-7-7-7-11-11-11-11-11-11-11-11-12-|

4:04

B |--------------------------------------------------------------------------------|
F#|--------------------------------------------------------------------------------|
B |-----------------------------7-10-----------------------------------3-6---------|
E |----------/------/-----------5-8----------------/------/------------1-4---------|
G#|-1-0-----5-8-5-0-5-6-5-1-0---5/8----8---1-0-----5-8-5-0-5-6-5-1-0---1/4---4-----|
C#|-1-0-0-0---------5-6-5-1-0-0------0-8-0-1-0-0-0---------5-6-5-1-0-0-----0-4-0---|
      * *                   *      *   *     * *                   *     *   *

B |--------------------------------------------------------------------------------|
F#|--------------------------------------------------------------------------------|
B |-----------------------------7-10-----------------------------------3-6---------|
E |----------/------/-----------5-8----------------/------/------------1-4---------|
G#|-1-0-----5-8-5-0-5-6-5-1-0---5/8----8---1-0-----5-8-5-0-5-6-5-1-0---1/4---4-----|
C#|-1-0-0-0---------5-6-5-1-0-0------0-8-0-1-0-0-0---------5-6-5-1-0-0-----0-4-0---|
        * *                   *      *   *     * *                   *     *   *

4:18

B |-----------------------------------------------------------------|
F#|-----------------------------------------------------------------|
B |-----------------------------------------------------------------|
E |-----------------------------------------------------------------|
G#|-----------------------------------------------------------------|
C#|-5-5-5-5-5-5-0-8--8-8-8-8-10-8-1-1-1-1-1-1-3-1-0-0-0-0-4-4-4-4---|

L outros preenchimentos R
B |-------------|--------|
F#|-------------|--------|
B |-12-10-------|-15-14--|
E |--X-X--------|--X--X--|
G#|-10-8--------|-13-12--|
C#|-------------|--------|
 
B |--------------------------------------------------------------|
F#|--------------------------------------------------------------|
B |--------------------------------------------------------------|
E |--------------------------------------------------------------|
G#|-5-5-5-5-5-5---8--8-8-8-8-10-8-1--1-1-1-1-3-1-0--0---4--4-----|
C#|-5-5-5-5-5-5-0-8--8-8-8-8-10-8-1--1-1-1-1-3-1-0--0-0-4--4-0---|
                *                                     *      *

B |---------------------------------------------------------------|
F#|---------------------------------------------------------------|
B |---------------------------------------------------------------|
E |---------------------------------------------------------------|
G#|-5--5-5-5-5-5---8--8-8-8-8-10-8-1--1-1-1-1-3-1-0--0---4--4-4---|
C#|-5--5-5-5-5-5-0-8--8-8-8-8-10-8-1--1-1-1-1-3-1-0--0-0-4--4-4-0-|
                 *                                     *        *

L
B |----------------------------------------------------------------------------------|
F#|----------------------------------------------------------------------------------|
B |----------------------------------------------------------------------------------|
E |----------------------------------------------------------------------------------|
G#|----------------------------------------------------------------------------------|
C#|-5-5-5-5-5-5-5-8-8-8-8-8-8-10-8-13-13-13-13-13-13-13-13-12-12-12-12-12-12-12-12-0-|
                                               
R
B |----------------------------------------------------------------------------------|
F#|----------------------------------------------------------------------------------|
B |----------------------------------------------------------------------------------|
E |----------------------------------------------------------------------------------|
G#|-5-5-5-5-5-5-5-8-8-8-8-8-8-10-8-13-13-13-13-13-13-13-13-12-12-12-12-12-12-12-12---|
C#|-5-5-5-5-5-5-5-8-8-8-8-8-8-10-8-13-13-13-13-13-13-13-13-12-12-12-12-12-12-12-12-0-|
                                               
L
B |---------------------------------------------------------------------------------|
F#|---------------------------------------------------------------------------------|
B |---------------------------------------------------------------------------------|
E |---------------------------------------------------------------------------------|
G#|---------------------------------------------------------------------------------|
C#|-5-5-5-5-5-5-5-8-8-8-8-8-8-10-8-13-13-13-13-13-13-15-13-12-12-12-12-16-16-16-/--|
                                               
R
B |--------------------------------------------------------------------------------|
F#|--------------------------------------------------------------------------------|
B |--------------------------------------------------------------------------------|
E |--------------------------------------------------------------------------------|
G#|-5-5-5-5-5-5-5-8-8-8-8-8-8-10-8-13-13-13-13-13-13-15-13-12-12-12-12-4-4-4-4-4---|
C#|-5-5-5-5-5-5-5-8-8-8-8-8-8-10-8-13-13-13-13-13-13-15-13-12-12-12-12-4-4-4-4-4---|
                                               
B |-------------------------------------------------------------------|
F#|-------------------------------------------------------------------|
B |-------------------------------------------------------------------|
E |-8--8--8-12--8-7-8-10-12-10--8-7--8--8--8-12--8-7--8-10-12-10--8-7-|
G#|-5--5--5--8--5-3-5--7--8--7--5-3--5--5--5--8--5-3--5--7--8--7--5-3-|
C#|-5--5--5--8--5-3-5--7--8--7--5-3--5--5--5--8--5-3--5--7--8--7--5-3-|
            /-----------                     /
R
B |-------------------------------------------------------------------|
F#|-------------------------------------------------------------------|
B |-------------------------------------------------------------------|
E |-------------------------------------------------------------------|
G#|-5--5--5--8--5-3-5--7--8--7--5-3--5--5--5--8--5-3-5--7--8--7--5-3--|
C#|-5--5--5--8--5-3-5--7--8--7--5-3--5--5--5--8--5-3-5--7--8--7--5-3--|
            /-----------                     /

L
B |---------------------------------------------------------------------------------------------|
F#|---------------------------------------------------------------------------------------------|
B |------------5--------------------5--------------------5--------------------------------------|
E |------------5--------------------5--------------------5---------------------/----------------|
G#|--^---------3----------^---------3----------^---------3----------^---------0-1-0---0---------|
C#|-1-0-000000---00-3-00-1-0-000000---00-3-00-1-0-000000---00-3-00-0-1-111111-------3---3-1-0-1-|
        ******   **   **     ******   **   **     ******   **   **     ******       
R
B |---------------------------------------------------------------------------------------------|
F#|---------------------------------------------------------------------------------------------|
B |------------5--------------------5--------------------5--------------------------------------|
E |------------5--------------------5--------------------5---------------------/----------------|
G#|--^---------3----------^---------3----------^---------3----------^---------0-1-0---0---------|
C#|-1-0-000000---00-3-00-1-0-000000---00-3-00-1-0-000000---00-3-00-0-1-111111-------3---3-1-0-1-|
        ******   **   **     ******   **   **     ******   **   **     ******       

L
B |---------------------------------------------------------------------------------------------|
F#|---------------------------------------------------------------------------------------------|
B |------------5--------------------5--------------------5--------------------------------------|
E |------------5--------------------5--------------------5---------------------/----------------|
G#|--^---------3----------^---------3----------^---------3----------^---------0-1-0---0---------|
C#|-1-0-000000---00-3-00-1-0-000000---00-3-00-1-0-000000---00-3-00-0-1-111111-------3---3-1-0-1-|
        ******   **   **     ******   **   **     ******   **   **     ******       
R
B |---------------------------------------------------------------------------------------------|
F#|---------------------------------------------------------------------------------------------|
B |------------5--------------------5--------------------5--------------------------------------|
E |------------5--------------------5--------------------5---------------------/----------------|
G#|--^---------3----------^---------3----------^---------3----------^---------0-1-0---0---------|
C#|-1-0-000000---00-3-00-1-0-000000---00-3-00-1-0-000000---00-3-00-0-1-111111-------3---3-1-0-1-|
        ******   **   **     ******   **   **     ******   **   **     ******       

Com o Riff anterior

B |---------------------------------------------------------------------------------------------|
F#|---------------------------------------------------------------------------------------------|
B |-14-14-14-14-14-14-14-14-14-14-14-14-12-12-12-12-12-12-12-12-7-7-7-7-7-7-7-7-7-7-7-7-7-7-7-7-|
E |--X--X--X--X--X--X--X--X--X--X--X--X--X--X--X--X--X--X--X--X-X-X-X-X-X-X-X-X-X-X-X-X-X-X-X-X-|
G#|-12-12-12-12-12-12-12-12-12-12-12-12-10-10-10-10-10-10-10-10-5-5-5-5-5-5-5-5-5-5-5-5-5-5-5-5-|
C#|---------------------------------------------------------------------------------------------|

B |--------------------------------------------------------------------------------------------|
F#|--------------------------------------------------------------------------------------------|
B |-14-14-14-14-14-14-14-14-14-14-14-14-17-17-17-17-17-17-17-17-121212121212121212121212121212-|
E |--X--X--X--X--X--X--X--X--X--X--X--X--X--X--X--X--X--X--X--X--X-X-X-X-X-X-X-X-X-X-X-X-X-X-X-|
G#|-12-12-12-12-12-12-12-12-12-12-12-12-15-15-15-15-15-15-15-15-101010101010101010101010101010-|
C#|--------------------------------------------------------------------------------------------|
B |---------------------------------------------------------------------------------------------|
F#|---------------------------------------------------------------------------------------------|
B |-14-14-14-14-14-14-14-14-14-14-14-14-12-12-12-12-12-12-12-12-7-7-7-7-7-7-7-7-7-7-7-7-7-7-7-7-|
E |--X--X--X--X--X--X--X--X--X--X--X--X--X--X--X--X--X--X--X--X-X-X-X-X-X-X-X-X-X-X-X-X-X-X-X-X-|
G#|-12-12-12-12-12-12-12-12-12-12-12-12-10-10-10-10-10-10-10-10-5-5-5-5-5-5-5-5-5-5-5-5-5-5-5-5-|
C#|---------------------------------------------------------------------------------------------|

B |--------------------------------------------------------------------------------------------|
F#|--------------------------------------------------------------------------------------------|
B |-14-14-14-14-14-14-14-14-14-14-14-14-17-17-17-17-17-17-17-17-121212121212121212121212121212-|
E |--X--X--X--X--X--X--X--X--X--X--X--X--X--X--X--X--X--X--X--X--X-X-X-X-X-X-X-X-X-X-X-X-X-X-X-|
G#|-12-12-12-12-12-12-12-12-12-12-12-12-15-15-15-15-15-15-15-15-101010101010101010101010101010-|
C#|--------------------------------------------------------------------------------------------|
Acordes para:
    Colaboração e revisão:
    • Nunes Gustavo

    0 comentários

      mostrar mais comentários

      Conseguiu tocar?

      2tocaram0ainda não

      Grave um vídeo tocando AOV e mande pra gente!

      00:00 / 00:00
      outros vídeos desta música
      repetirqualidadeautomática
      Outro vídeos desta música
        00:00 / 00:00
        automática
        OK