Cifra Club

Bother

Stone Sour

Cifra: Principal (violão e guitarra)
exibições 116.893
Tom: D#m
[Intro]

     Ebm7
E|-6----6-------------------------------------------------------------|
B|-6----6-----7h6----------------------------------------------------|
G|-8----6------------8h6---------------------------------------------|
D|-6----6-------------------------------------------------------------|
A|-7----6-------------------------------------------------------------|
E|-6----6-------------------------------------------------------------|

[Verso]

Ebm7 m Db  Ebm7

Ebm7 m Db  Ebm7

[Refrão]

Ebm7  Db  Ebm7  Bb

Ebm7  Db  B  Db

     Ebm7
E|-6----6-------------------------------------------------------------|
B|-6----6-----7h6----------------------------------------------------|
G|-8----6------------8h6---------------------------------------------|
D|-6----6-------------------------------------------------------------|
A|-7----6-------------------------------------------------------------|
E|-6----6-------------------------------------------------------------|

[Verso]

Ebm7 m Db  Ebm7

Ebm7 m Db  Ebm7

[Ponte]

Ebm7  B/D#  B  Db

[Refrão]

Ebm7  Db  Ebm7  Bb

Ebm7  Db  B  Db

[Riff]

          D
 E|---3-----2------3-2---0----------------
 B|---3-----3---------------3-------------
 G|---0-----2-----------------------------
 D|---------0------------------2----------
 A|---2-----------------------------------
 E|---------------------------------------

           D
 E|--7-------2----------------------------
 B|--0-------3----------------------------
 G|--0-------2----------------------------
 D|----------0----------------------------
 A|---------------------------------------
 E|---------------------------------------
Acordes para:
    Composição: Corey TaylorColaboração e revisão:
    • Benjamin Dominguez
    • Bob Bob
    • Paulo Victor

    0 comentários

      mostrar mais comentários

      Conseguiu tocar?

      8tocaram1ainda não

      Grave um vídeo tocando Bother e mande pra gente!

      00:00 / 00:00
      outros vídeos desta música
      repetirqualidadeAutomático
      Outro vídeos desta música
        00:00 / 00:00
        OK