Cifra Club

Bother

Stone Sour

Tab de baixo: Principal
exibições 4.457
Tab na ordem

Intro 4x
Gb|----------|
Db|----------|
Ab|7~--5~----|
Eb|----------|

Verse 1
Gb|----------|  |-------------------|  |----------|  |--------------|
Db|----------|  |-------------------|  |----------|  |--------------|
Ab|7~--5~----|2x|5-555555-7~--5~----|1x|7~--5~----|2x|5-555555----55|1x
Eb|----------|  |-------------------|  |----------|  |---------33---|

Chorus 1
Gb|-------------------------------------------|
Db|-------------------------------------------|
Ab|7~-------7-5~-------5-7~-------7-----------|
Eb|---------------------------------7-777-7777|

Gb|-------------------------------------|
Db|-------------------------------------|
Ab|7~-------7-5~-------5\3-3-3333/5-5-55|
Eb|-------------------------------------|

Intro 4x

Verse 2 (play all of Verse 1 once then this)
Gb|--------------------------------------------|
Db|2-222-2222----------------------------------|
Ab|-----------2-222-2222-3-333-3333-5-555-5555/|
Eb|--------------------------------------------|

Chorus 1

Guitar Solo 4x
Gb|-------------|
Db|-------------|
Ab|7~-----------|
Eb|-------------|

Intro 4x

Verse 1

Chorus 2 (play all of Chorus 1 once then this)
Gb|-------------------------------------------|
Db|-------------------------------------------|
Ab|7~-------7-5~-------5-7~-------7-----------|
Eb|---------------------------------7-777-7777|

Gb|----------------------------------------------|
Db|----------------------------------------------|
Ab|7~-------7-5~-------5\3-3-33/5~---------------|
Eb|----------------------------------------------|

Intro 4x

End
Gb|--|
Db|--|
Ab|7~|
Eb|--|

OBS: Uma bela música!
Composição: Corey TaylorColaboração e revisão:
  • Bruno Balberith

0 comentários

    mostrar mais comentários

    Conseguiu tocar?

    1tocaram0ainda não

    Grave um vídeo tocando Bother e mande pra gente!

    00:00 / 00:00
    outros vídeos desta música
    repetirqualidadeautomática
    Outro vídeos desta música
      00:00 / 00:00
      automática
      OK