Cifra Club

Still Waiting

Sum 41

Cifra: Versão 3 (violão e guitarra)
Tom: G
INTRO a x1
E|-----------------|-----------------|-----------------|-----------------|
B|-----------------|-----------------|-----------------|-----------------|
G|-9-9-9-9-9-9-9-9-|-5-5-5-5-5-5-5-5-|-----------------|-4-4-4-4-4-4-4-4-|
D|-9-9-9-9-9-9-9-9-|-5-5-5-5-5-5-5-5-|-5-5-5-5-5-5-5-5-|-4-4-4-4-4-4-4-4-|
A|-7-7-7-7-7-7-7-7-|-3-3-3-3-3-3-3-3-|-5-5-5-5-5-5-5-5-|-2-2-2-2-2-2-2-2-|
E|-----------------|-----------------|-3-3-3-3-3-3-3-3-|-----------------|
   .....................................................................
E|-----------------|-----------------|-----------------|-----------------|-----|
B|-----------------|-----------------|-----------------|-----------------|-----|
G|-9-9-9-9-9-9-9-9-|-5-5-5-5-5-5-5-5-|-----------------|-7-7-7-7-7-7-7-7-|--7--|
D|-9-9-9-9-9-9-9-9-|-5-5-5-5-5-5-5-5-|-5-5-5-5-5-5-5-5-|-7-7-7-7-7-7-7-7-|--7--|
A|-7-7-7-7-7-7-7-7-|-3-3-3-3-3-3-3-3-|-5-5-5-5-5-5-5-5-|-5-5-5-5-5-5-5-5-|--5--|
E|-----------------|-----------------|-3-3-3-3-3-3-3-3-|-----------------|-----|
   .....................................................................
INTRO b x2
E|-----------------|-----------------|-----------------|-----------------|
B|-----------------|-----------------|-----------------|-----------------|
G|------12--11--12-|------12--11--12-|------12--11--12-|-14--12--11--7---|
D|-----------------|-----------------|-----------------|-----------------|
A|------10--9---10-|------10--9---10-|------10--9---10-|-12--10--9---5---|
E|-----------------|-----------------|-----------------|-----------------|
VERSE a x1
"Drop dead, a bullet to my head..."
E|-----------------|-----------------|-----------------|-----------------|
B|-----------------|-----------------|-----------------|-----------------|
G|-----------------|-----------------|-----------------|-----------------|
D|-2---------------|-8\7---8\7-------|-2---------------|-----------------|
A|-2--222-222-222--|-8\7---8\7-------|-2--222-222-222--|--5-----5------5-|
E|-0--000-000-000--|-6\5---6\5-0-3-5-|-0--000-000-000--|--3-----3------3-|
      ...........                         ...........
E|-----------------|-----------------|-----------------|-----------------|
B|-----------------|-----------------|-----------------|-----------------|
G|-----------------|-----------------|-----------------|----------7---7--|
D|-2---------------|-8\7---8\7-------|-----------------|-4-4-4-4--7---7--|
A|-2--222-222-222--|-8\7---8\7-------|-5-5-5-5-5-5-5-5-|-2-2-2-2--5---5--|
E|-0--000-000-000--|-6\5---6\5-0-3-5-|-3-3-3-3-3-3-3-3-|-----------------|
      ...........
VERSE b x1
"Three times, casino eviction..."
E|-----------------|-----------------|-----------------|-----------------|
B|-----------------|-----------------|-----------------|-----------------|
G|-----------------|-----------------|-----------------|-----------------|
D|-2---------------|-8\7---8\7-------|-2---------------|-----------------|
A|-2--222-222-222--|-8\7---8\7-------|-2--222-222-222--|--5-----5------5-|
E|-0--000-000-000--|-6\5---6\5-0-3-5-|-0--000-000-000--|--3-----3------3-|
      ...........                         ...........
E|-----------------|-----------------|-----------------|
B|-----------------|-----------------|-----------------|
G|-----------------|-----------------|-----------------|
D|-2---------------|-8\7---8\7-------|-----------------|
A|-2--222-222-222--|-8\7---8\7-------|-5-5-5-5-5-5-5-5-|
E|-0--000-000-000--|-6\5---6\5-0-3-5-|-3-3-3-3-3-3-3-3-|
      ...........
PRE-CHORUS x1
"I'd say it's up...to me..."
E|-----------------|-----------------|
B|-----------------|-----------------|
G|-----------4-4-4-|-4-4-4-4-4-4-4-4-|
D|-4-4-4-4-4-4-4-4-|-4-4-4-4-4-4-4-4-|
A|-2-2-2-2-2-2-2-2-|-2-2-2-2-2-2-2-2-|
E|-----------------|-----------------|
CHORUS x2
"So am I still waiting for this world to stop hating..."
E|-----------------|-----------------|-----------------|-----------------|
B|-----------------|-----------------|-----------------|-----------------|
G|-9-9-9-9-9-9-9-9-|-5-5-5-5-5-5-5-5-|-----------------|-4-4-4-4-4-4-4-4-|
D|-9-9-9-9-9-9-9-9-|-5-5-5-5-5-5-5-5-|-5-5-5-5-5-5-5-5-|-4-4-4-4-4-4-4-4-|
A|-7-7-7-7-7-7-7-7-|-3-3-3-3-3-3-3-3-|-5-5-5-5-5-5-5-5-|-2-2-2-2-2-2-2-2-|
E|-----------------|-----------------|-3-3-3-3-3-3-3-3-|-----------------|
BRIDGE x1
E|-----------------|-----------------|-----------------|-----------------|
B|-----------------|-----------------|-----------------|-----------------|
G|------12--11--12-|-5-5--12--11--12-|------12--11--12-|-14--12--11--7---|
D|-2-2-------------|-5-5-------------|-2-2-------------|-----------------|
A|-2-2--10--9---10-|-3-3--10--9---10-|-2-2--10--9---10-|-12--10--9---5---|
E|-0-0-------------|-----------------|-0-0-------------|-----------------|
VERSE a x1
E|-----------------|-----------------|-----------------|-----------------|
B|-----------------|-----------------|-----------------|-----------------|
G|-----------------|-----------------|-----------------|-----------------|
D|-2---------------|-8\7---8\7-------|-2---------------|-----------------|
A|-2--222-222-222--|-8\7---8\7-------|-2--222-222-222--|--5-----5------5-|
E|-0--000-000-000--|-6\5---6\5-0-3-5-|-0--000-000-000--|--3-----3------3-|
      ...........                         ...........
E|-----------------|-----------------|-----------------|-----------------|
B|-----------------|-----------------|-----------------|-----------------|
G|-----------------|-----------------|-----------------|----------7---7--|
D|-2---------------|-8\7---8\7-------|-2---------------|-4-4-4-4--7---7--|
A|-2--222-222-222--|-8\7---8\7-------|-2--222-222-222--|-2-2-2-2--5---5--|
E|-0--000-000-000--|-6\5---6\5-0-3-5-|-0--000-000-000--|-----------------|
      ...........                         ...........
VERSE b x1
E|-----------------|-----------------|-----------------|-----------------|
B|-----------------|-----------------|-----------------|-----------------|
G|-----------------|-----------------|-----------------|-----------------|
D|-2---------------|-8\7---8\7-------|-2---------------|-----------------|
A|-2--222-222-222--|-8\7---8\7-------|-2--222-222-222--|--5-----5------5-|
E|-0--000-000-000--|-6\5---6\5-0-3-5-|-0--000-000-000--|--3-----3------3-|
      ...........                         ...........
E|-----------------|-----------------|-----------------|
B|-----------------|-----------------|-----------------|
G|-----------------|-----------------|-----------------|
D|-2---------------|-8\7---8\7-------|-----------------|
A|-2--222-222-222--|-8\7---8\7-------|-5-5-5-5-5-5-5-5-|
E|-0--000-000-000--|-6\5---6\5-0-3-5-|-3-3-3-3-3-3-3-3-|
      ...........
PRE-CHORUS x1
"I'd say it's up...to me..."
E|-----------------|-----------------|
B|-----------------|-----------------|
G|-----------4-4-4-|-4-4-4-4-4-4-4-4-|
D|-4-4-4-4-4-4-4-4-|-4-4-4-4-4-4-4-4-|
A|-2-2-2-2-2-2-2-2-|-2-2-2-2-2-2-2-2-|
E|-----------------|-----------------|
CHORUS x2
"So am I still waiting for this world to stop hating..."
E|-----------------|-----------------|-----------------|-----------------|
B|-----------------|-----------------|-----------------|-----------------|
G|-9-9-9-9-9-9-9-9-|-5-5-5-5-5-5-5-5-|-----------------|-4-4-4-4-4-4-4-4-|
D|-9-9-9-9-9-9-9-9-|-5-5-5-5-5-5-5-5-|-5-5-5-5-5-5-5-5-|-4-4-4-4-4-4-4-4-|
A|-7-7-7-7-7-7-7-7-|-3-3-3-3-3-3-3-3-|-5-5-5-5-5-5-5-5-|-2-2-2-2-2-2-2-2-|
E|-----------------|-----------------|-3-3-3-3-3-3-3-3-|-----------------|
BREAK a x1
"This can't last forever..."
E|-----------------|-----------------|-----------------|-----------------|
B|-----------------|-----------------|-----------------|-----------------|
G|-----------------|-5-5-5-5-5-------|-0-0-0-0---------|-----------------|
D|-2-2-2-2-2-------|-5-5-5-5-5-------|---------4-4-4-4-|-2-2-2-2-0-0-0-0-|
A|-2-2-2-2-2-------|-3-3-3-3-3-------|-----------------|-----------------|
E|-0-0-0-0-0-------|-----------------|-----------------|-----------------|
E|-----------------|-----------------|-----------------|-----------------|
B|-----------------|-----------------|-----------------|-----------------|
G|-----------------|-5-5-5-5-5-------|-0-0-0-0---------|-----------------|
D|-2-2-2-2-2-------|-5-5-5-5-5-------|---------4-4-4-4-|-5-5-5-5-7-7-7-7-|
A|-2-2-2-2-2-------|-3-3-3-3-3-------|-----------------|-----------------|
E|-0-0-0-0-0-------|-----------------|-----------------|-----------------|
BREAK b x2
"I feel so alone..."
E|-----------------|-----------------|-----------------|-----------------|
B|-----------------|-----------------|-----------------|-----------------|
G|-9-9-9-9-9-9-9-9-|-5-5-5-5-7-7-7-7-|-9-9-9-9-9-9-9-9-|-5-5-5-5-7-7-7-7-|
D|-9-9-9-9-9-9-9-9-|-5-5-5-5-7-7-7-7-|-9-9-9-9-9-9-9-9-|-5-5-5-5-7-7-7-7-|
A|-7-7-7-7-7-7-7-7-|-3-3-3-3-5-5-5-5-|-7-7-7-7-7-7-7-7-|-3-3-3-3-5-5-5-5-|
E|-----------------|-----------------|-----------------|-----------------|
BREAK c x1
"Tell me..."
E|-----------------|-----------------|-------------------------|-------------------------|
B|-----------------|-----------------|-------------------------|-------------------------|
G|-9-9-9-9-9-9-9-9-|-9-9-9-9-9-9-9-9-|-12-12-12-12-12-12-12-12-|-11-11-11-11-11-11-11-11-|
D|-----------------|-----------------|-------------------------|-------------------------|
A|-7-7-7-7-7-7-7-7-|-7-7-7-7-7-7-7-7-|-10-10-10-10-10-10-10-10-|-9--9--9--9--9--9--9--9--|
E|-----------------|-----------------|-------------------------|-------------------------|
SOLO a x4
"...what have we done..."
E|------------------|------------------|------------------|---------------------|
B|------------------|------------------|------------------|---------------------|
G|------------------|------------------|------------------|---------------------|
D|-----9------------|-----9------------|-----9------------|-0-------------------|
A|-7------10-9----9-|--------10-9----9-|--------10-9----9-|---9-9-10-12-10-9-10-|
E|-------------10---|-8-----------10---|-3-----------10---|---------------------|
SOLO b x1
E|---------------------|
B|---------------------|
G|---------------------|
D|-0-------------------|
A|---9-9-10-12-10-9-10-|
E|---------------------|
CHORUS x3
"So am I still waiting for this world to stop hating..."
E|-----------------|-----------------|-----------------|-----------------|
B|-----------------|-----------------|-----------------|-----------------|
G|-9-9-9-9-9-9-9-9-|-5-5-5-5-5-5-5-5-|-----------------|-4-4-4-4-4-4-4-4-|
D|-9-9-9-9-9-9-9-9-|-5-5-5-5-5-5-5-5-|-5-5-5-5-5-5-5-5-|-4-4-4-4-4-4-4-4-|
A|-7-7-7-7-7-7-7-7-|-3-3-3-3-3-3-3-3-|-5-5-5-5-5-5-5-5-|-2-2-2-2-2-2-2-2-|
E|-----------------|-----------------|-3-3-3-3-3-3-3-3-|-----------------|
OUTRO a x1
E|-----------------|-----------------|-----------------|-----------------|
B|-----------------|-----------------|-----------------|-----------------|
G|-9-9-9-9-9-9-9-9-|-5-5-5-5-5-5-5-5-|-----------------|-7-7-7-7-7-7-7-7-|
D|-9-9-9-9-9-9-9-9-|-5-5-5-5-5-5-5-5-|-5-5-5-5-5-5-5-5-|-7-7-7-7-7-7-7-7-|
A|-7-7-7-7-7-7-7-7-|-3-3-3-3-3-3-3-3-|-5-5-5-5-5-5-5-5-|-5-5-5-5-5-5-5-5-|
E|-----------------|-----------------|-3-3-3-3-3-3-3-3-|-----------------|
OUTRO b x1
"Beliiiiiiive..."
E|-----------------|-----------------|
B|-----------------|-----------------|
G|-9-9-9-9-9-9-9-9-|-9\--------------|
D|-9-9-9-9-9-9-9-9-|-9\--------------|
A|-7-7-7-7-7-7-7-7-|-7\--------------|
E|-----------------|-----------------|
exibições 454
Acordes para:
    Composição: Deryck Whibley / Greig Nori Colaboração e revisão:
    • Anna Armart

    0 comentários

    mostrar mais comentários

    Conseguiu tocar?

    0 tocaram 0 ainda não

    Grave um vídeo tocando Still Waiting e mande pra gente!

    00:00 / 00:00
    outros vídeos desta música
    repetir qualidade Automático
    Outros vídeos desta música
    00:00 / 00:00
    Automático
    OK