Cifra Club

Aprenda

Deus da Força

Thalles Roberto

Cifra: Iniciante (violão e guitarra)
Tom: C
Riff:

E|-----------------------------------------|
B|-----------------------------------------|
G|-----------------------------------------|
D|-----------------------------------------|
A|------------5-5--5-------------5-5-------|
E|-5-5--5-8-5----8--8-5-5--5-8-5-----------|

E|-----------------------------------------|
B|-----------------------------------------|
G|-----------------------------------------|
D|--------------5-7------------------------|
A|---5---7-7--7-----5-5---5---5---5-5------|
E|-8---8----------------8---8----8-8-8-5-5-|

E|-----------------------------------------|
B|-----------------------------------------|
G|-----------------------------------------|
D|-----------------------------------------|
A|--------5-5--5-------------5-5-----------|
E|--5-8-5----8--8-5-5--5-8-5---------------|

E|-----------------------------------------|
B|-----------------------------------------|
G|-----------------------------------------|
D|--------------5-7------------------------|
A|---5---7-7--7----5-5---5---5----5-5------|
E|-8---8---------------8---8-----8-8-8-5-5-|
Composição de Thalles Roberto
Colaboração e revisão:
  • Everton Pereira
  • Eliabe Silva
  • marcos mateus
10.689 exibições
    • ½ Tom
    • A
    • Bb
    • B
    • C
    • Db
    • D
    • Eb
    • E
    • F
    • F#
    • G
    • Ab
  • Adicionar à lista

    0 comentários

    Mostrar mais comentários
    00:00 / 00:00
    outros vídeos desta música
    repetir qualidade Automático
    Outros vídeos desta música
    00:00 / 00:00
    Automático

    Cifra Club Pro

    Aproveite o Cifra Club com benefícios exclusivos e sem anúncios
    7 dias grátis
    Cifra Club Pro
    Aproveite o Cifra Club com benefícios exclusivos e sem anúncios
    7 dias grátis
    OK