Cifra Club

Blinding Lights

The Weeknd

Cifra: Principal (violão e guitarra)
tom: Cm (forma dos acordes no tom de Bm) Capotraste na 1ª casa
[Prefácio] Em

[Tab - Prefácio]

[Parte 1 De 3]
   Em
E|-0------------0---------------------------|
B|-0------------0---------------------------|
G|-0--0---------0---------------------------|
D|-2----4--2----2--2--0-2--4---0------------|
A|-2------------2------------2--------------|
E|-0------------0---------------------------|
   ↓            ↓
[Parte 2 De 3]
 
E|----x-----x-----x--x-x-x-x----------------|
B|----x-----x-----x--x-x-x-x----------------|
G|----x-----x-----x--x-x-x-x----------------|
D|-x--x--x--x--x--x--x-x-x-x----------------|
A|-x--x--x--x--x--x--x-x-x-x----------------|
E|-x--x--x--x--x--x--x-x-x-x----------------|
   ↓  ↓  ↓  ↓  ↓  ↓  ↓ ↑ ↓ ↑

[Parte 3 De 3]
 
E|----x-----x-----x--x-x-x-x----------------|
B|----x-----x-----x--x-x-x-x----------------|
G|----x-----x-----x--x-x-x-x----------------|
D|-x--x--x--x--x--x--x-x-x-x----------------|
A|-x--x--x--x--x--x--x-x-x-x----------------|
E|-x--x--x--x--x--x--x-x-x-x----------------|
   ↓  ↓  ↓  ↓  ↓  ↓  ↓ ↑ ↓ ↑


[Intro] Em  Bm11  D2  A2

[Tab - Intro]

[Parte 1 De 2]

E|-----------2------------------2----------------------|
B|-5--5--3-5-----3----5--5--3-5-----3------------------|
G|-------------4------------------4--------------------|
D|-----------------------------------------------------|
A|-----------------------------------------------------|
E|-----------------------------------------------------|

[Parte 2 De 2]

E|-5-2------5-2----------------------------------------|
B|-----5-3------5-3--5---------------------------------|
G|-----------------------------------------------------|
D|-----------------------------------------------------|
A|-----------------------------------------------------|
E|-----------------------------------------------------|

[Primeira Parte]

 A2/G            A2/F#   Em
Yeah I've been tryna    call
                Bm11
I've been on my own for long enough
                D2
Maybe you can show me how to love 
    A2
Maybe

A2/G         A2/F#      Em
I'm going through withdrawals
                Bm11
You don't even have to do too much
                D2       
You can turn me on with just a touch 
   A2   A2/G     A2/F#
Baby    I look around and 

[Pré-Refrão]

Em
   Sin city's cold and empty
Bm11
    No one's around to judge me
D2                                 A2   
  I can't see clearly when you're gone

[Refrão]

        Em         Bm11
I said, ooh, I'm blinded by the lights
    D2
No, I can't sleep 
              A2
Until I feel your touch
A2/G   A2/F#  Em       
I said,       ooh 
      Bm11
I'm drowning in the night
      D2                    
Oh, when I'm like this
               A2               
You're the one I trust 
         A2/G  A2/F#
Hey, hey,  hey

( Em  Bm11  D2  A2 )

[Segunda Parte]

A2/G        A2/F#   Em
I'm running out of time
                      Bm11
'Cause I can see the Sun 

Light up the sky
              D2                   
So I hit the road in overdrive
   A2  A2/G  A2/F#
Baby   ohhhhhhh

[Pré-Refrão]

Em
   The city's cold and empty
Bm11
    No one's around to judge me
D2                                 A2
  I can't see clearly when you're gone

[Refrão]

        Em         Bm11
I said, ooh, I'm blinded by the lights
    D2
No, I can't sleep 
              A2
Until I feel your touch
A2/G   A2/F#  Em       
I said,       ooh 
      Bm11
I'm drowning in the night
      D2                    
Oh, when I'm like this
               A2               
You're the one I trust 

[Terceira Parte]

A2/G      A2/F#   Em
I'm just calling back to let you know 
             Bm11
I can never say it on the phone 
      D                     A
Will never let you go this ti___me

[Refrão]

A2/G   A2/F#  Em   
I said,       ooh  
      Bm11
I'm blinded by the lights
    D2
No, I can't sleep 
              A2
Until I feel your touch
         A2/G  A2/F#
Hey, hey,  hey 

( Em  Bm11  D2  A2 )

         A2/G  A2/F#
Hey, hey,  hey 

( Em  Bm11  D2  A2 )

A2/G   A2/F#  Em   
I said,       ooh
      Bm11
I'm blinded by the lights
    D2
No, I can't sleep 
              A2
Until I feel your touch
00:00 / 00:00
Outros vídeos desta música
Repetir
Outros vídeos desta música
Composição de Abel Tesfaye / Ahmad Balshe / Jason Quenneville / Max Martin / Oscar Holter
Colaboração e revisão:
  • Thiago Almeida
20.566 exibições
  • Simplificar cifra
    • ½ Tom
    • Am
    • Bbm
    • Bm
    • Cm
    • C#m
    • Dm
    • Ebm
    • Em
    • Fm
    • F#m
    • Gm
    • G#m
  • Adicionar à lista

    0 comentários

    Ver todos os comentários

    Conseguiu tocar?

    7 Tocaram 0 Ainda não

    Grave um vídeo tocando Blinding Lights e nos envie!

    Entre para oCifra Club PRO

    Tenha acesso a benefícios exclusivos no App e no Site

    • Chega de anúncios

    • Prioridade de compra em lançamentos

    • Mais recursos no app do Afinador

    • Atendimento Prioritário

    • Descontos nos produtos Cifra Club

    • Ajude a produzir mais conteúdo

    00:00 / 00:00
    Capítulos
    • Tocando a Música
    • Acordes do Prefácio
    • Tocando Prefácio
    • Ensinando Prefácio
    • Acordes da Introdução
    • Tocando Introdução
    • Ritmo Introdução
    • Tocando Pré-Refrão
    • Ritmo Pré-Refrão
    • Tocando Solo
    • Ensinando Solo
    • Encerramento

    Cifra Club Pro

    Aproveite o Cifra Club com benefícios exclusivos e sem anúncios
    Cifra Club Pro
    Aproveite o Cifra Club com benefícios exclusivos e sem anúncios
    OK