Cifra Club

Can't Feel My Face

The Weeknd

Cifra: Principal (violão e guitarra)
tom: C
Intro: G  F  Am

Primeira Parte:

        G
And I know she'll be the death of me
    F
At least we'll both be numb
           Am
And she'll always get the best of me

The worst is yet to come
        G
But at least we'll both be beautiful
      F
And stay forever young
         Am
This I know, this I know

Pré-refrão:

                     G      F
She told me, "don't worry about it"
                     Am
She told me, "don't worry no more"
                 G           F
We both knew we can't go without it
                    Am
She told me you'll never be in love 

Oh, oh, oh

Refrão:

G                                   F
I can't feel my face when I'm with you 
       Am
But I love it, but I love it
G                                   F
I can't feel my face when I'm with you 
       Am
But I love it, but I love it

Segunda Parte:


And I know she'll be the death of me
    F
At least we'll both be numb
           Am
And she'll always get the best of me

The worst is yet to come
         G
All the misery was necessary
      F
When we're deep in love
         Am
This I know, yes I know, and I know

Pré-refrão:

                     G      F
She told me, "don't worry about it"
                     Am
She told me, "don't worry no more"
                 G           F
We both knew we can't go without it
                    Am
She told me you'll never be in love 

Oh, oh, oh


Refrão:

G                                   F
I can't feel my face when I'm with you 
       Am
But I love it, but I love it
G                                   F
I can't feel my face when I'm with you 
       Am
But I love it, but I love it


                 G             F
I can't feel my face when I'm with you 
       Am
But I love it, but I love it
                 G             F
I can't feel my face when I'm with you 
       Am
But I love it, but I love it

Repete Intro: G  F  Am

Pré-refrão:

                     G      F
She told me, "don't worry about it"
                     Am
She told me, "don't worry no more"
                 G           F
We both knew we can't go without it
                    Am
She told me you'll never be in love 

Oh, oh, oh

Refrão Final:

G                                   F
I can't feel my face when I'm with you 
       Am
But I love it, but I love it
G                                   F
I can't feel my face when I'm with you 
       Am
But I love it, but I love it

                 G             F
I can't feel my face when I'm with you 
       Am
But I love it, but I love it
                 G             F
I can't feel my face when I'm with you 
       Am
But I love it, but I love it

                 G  F  Am
I can't feel my fa..

Groove 1:

Parte 1

   G
E|------------------------------------------|
B|------------------------------------------|
G|------------------------------------------|
D|------------------------------------------|
A|-----------------------0h3----------------|
E|-x-3-x-3-x-x-3---3-x-x--------------------|
   ↓ ↓ ↓ ↑ ↓ ↑ ↓   ↑ ↓ ↑ ↓

Parte 2

   F
E|------------------------------------------|
B|------------------------------------------|
G|------------------------------------------|
D|------------------------------------------|
A|-----------------------0h3----------------|
E|-x-1-x-1-x-x-1---1-x-x--------------------|
   ↓ ↓ ↓ ↑ ↓ ↑ ↓   ↑ ↓ ↑ ↓

Parte 3

   Am
E|------------------------------------------|
B|------------------------------------------|
G|------------------------------------------|
D|------------------------------------------|
A|------------------------------------------|
E|-x-5-x-5-x-x-5---3-5----------------------|
   ↓ ↓ ↓ ↑ ↓ ↑ ↓   ↓ ↑

Parte 4

   Am
E|------------------------------------------|
B|------------------------------------------|
G|------------------------------------------|
D|------------------------------------------|
A|-----------------------0h3----------------|
E|-x-5-x-5-x-x-5---5-x-x--------------------|
   ↓ ↓ ↓ ↑ ↓ ↑ ↓   ↑ ↓ ↑ ↓


Groove 1 (variação):

Parte 1

   G
E|------------------------------------------|
B|------------------------------------------|
G|---4---4-----4---4------------------------|
D|---5---5-----5---5------------------------|
A|---5---5-----5---5-----0h3----------------|
E|-x-3-x-3-x-x-3---3-x-x--------------------|
   ↓ ↓ ↓ ↑ ↓ ↑ ↓   ↑ ↓ ↑ ↓

Parte 2

   F
E|------------------------------------------|
B|------------------------------------------|
G|---2---2-----2---2------------------------|
D|---3---3-----3---3------------------------|
A|---3---3-----3---3-----0h3----------------|
E|-x-1-x-1-x-x-1---1-x-x--------------------|
   ↓ ↓ ↓ ↑ ↓ ↑ ↓   ↑ ↓ ↑ ↓

Parte 3

   Am
E|------------------------------------------|
B|------------------------------------------|
G|---5---5-----5----------------------------|
D|---7---7-----7----------------------------|
A|---7---7-----7----------------------------|
E|-x-5-x-5-x-x-5---3-5----------------------|
   ↓ ↓ ↓ ↑ ↓ ↑ ↓   ↓ ↑

Parte 4

   Am
E|------------------------------------------|
B|------------------------------------------|
G|---5---5-----5---5------------------------|
D|---7---7-----7---7------------------------|
A|---7---7-----7---7-----0h3----------------|
E|-x-5-x-5-x-x-5---5-x-x--------------------|
00:00 / 00:00
Outros vídeos desta música
Repetir
Outros vídeos desta música
Compositor não encontrado.
Colaboração e revisão:
  • Leandro Sandim
  • Gabriel Pauli
141.403 exibições
  • Simplificar cifra
    • ½ Tom
    • A
    • Bb
    • B
    • C
    • Db
    • D
    • Eb
    • E
    • F
    • F#
    • G
    • Ab
  • Adicionar à lista

    0 comentários

    Ver todos os comentários

    Conseguiu tocar?

    20 Tocaram 3 Ainda não

    Grave um vídeo tocando Can't Feel My Face e nos envie!

    00:00 / 00:00
    Capítulos
    • Tocando a Música
    • Dicas iniciais / Equipamentos
    • Acordes da música
    • Introdução; Primeira Parte e Pré Refrão
    • Ensinando Ritmo
    • Dicas Refrão
    • Refrão
    • Primeira Parte - Parte 1 de 4
    • Primeira Parte - Parte 2 de 4
    • Primeira Parte - Parte 3 de 4
    • Primeira Parte - Parte 4 de 4
    • Variação do Groove - Parte 1 de 4
    • Variação do Groove - Parte 2 de 4
    • Variação do Groove - Parte 3 de 4
    • Variação do Groove - Parte 4 de 4
    • Dicas Segunda Parte
    • Tocando Segunda Parte
    • Dicas Segundo Pré Refrão
    • Tocando Segundo Pre Refrão
    • Dicas Segundo Refrão
    • Tocando Segundo Refrão
    • Dicas Último Refrão
    • Tocando Último Refrão
    • Dicas Finais / Encerramento
    • Ficha Técnica

    Cifra Club Pro

    Aproveite o Cifra Club com benefícios exclusivos e sem anúncios
    Cifra Club Pro
    Aproveite o Cifra Club com benefícios exclusivos e sem anúncios
    OK