Cifra Club

In Your Eyes

The Weeknd

Cifra: Principal (violão e guitarra)
tom: Bb (forma dos acordes no tom de G) Capotraste na 3ª casa
[Intro] Am  D  Em  C

[Riff]

E|----------------------------------------------------|
B|--4--3-------------3--1-----1--3--------------------|
G|----------5----------------------3------------------|
D|-------------3--------------------------------------|
A|----------------------------------------------------|
E|----------------------------------------------------|

Am     D       Em        C
I just pretend that I'm in the dark
Am      D                Em           C
I don't regret 'cause my heart can't take a loss
Am               D
I'd rather be so oblivious
    Em             C
I'd rather be with you

Em             Am              G
When it's said, when it's done, yeah
G
I don't ever wanna know
Em        Am             G
I can tell what you done, yeah
G
When I look at you

        Am
In your eyes
   D                            Em
I see there's something burning inside you
    C
Oh, inside you
        Am
In your eyes
  D                              Em
I know it hurts to smile but you try to
        C
Oh, you try to

    Am
You always try to hide the pain
           D
You always know just what to say
         Em
I always look the other way
        C
I'm blind, I'm blind

        Am
In your eyes
    D                       Em
You lie, but I don't let it define you
    C
Oh, define you

Am         D 
I tried to find love
   Em                 C
In someone else too many times
   Am                 D
But I hope you know I mean it (mean it)
       Em                              C
When I tell you you're the one that was on my mind, oh

Em             Am              G
When it's said, when it's done, yeah
G
I would never let you know (let you know)
Em          Am               G
I'm ashamed of what I've done, yeah
G
When I look at you

        Am
In your eyes (your eyes)
   D                            Em         
I see there's something burning inside you (inside you)
    C
Oh, inside you (oh, inside you)
        Am
In your eyes
  D                              Em
I know it hurts to smile but you try to (but you try to)
        C
Oh, you try to (I try to)

          Am
You always try to hide the pain (oh, oh)
           D
You always know just what to say (oh, dear)
         Em
I always look the other way
    C
I'm blind, I'm blind

        Am       D                        Em
In your eyes, you lie, but I don't let it define you (hey)
    C
Oh, define you

( Am  D  Em  C )

E|----------------------------------------------------|
B|--4--3-------------3--1-----1--3--------------------|
G|----------5----------------------3------------------|
D|-------------3--------------------------------------|
A|----------------------------------------------------|
E|----------------------------------------------------|

        Am
In your eyes
  D                             Em
I see there's something burning inside you
    C
Oh, inside you

           Am
You always try to hide the pain
           D
You always know just what to say
         Em
I always look the other way
    C
I'm blind, I'm blind

        Am       D                        Em
In your eyes, you lie, but I don't let it define you
    C
Oh, define you

[Final] Am  D  Em  C 
        Am  D  Em  C 
        Am  D  Em  C 
        Am  D  Em  C 

E|----------------------------------------------------|
B|--16-15------------15-13----13-15-11----------------|
G|----------17----------------------------------------|
D|-------------15-------------------------------------|
A|----------------------------------------------------|
E|----------------------------------------------------|
00:00 / 00:00
Outros vídeos desta música
Repetir
Outros vídeos desta música
Composição de Abel Tesfaye / Ahmad Balshe / Martin Karl Sandberg / Oscar Holter
Colaboração e revisão:
  • Leandro Barbosa
  • Phelipe Omena
6.799 exibições
    • ½ Tom
    • A
    • Bb
    • B
    • C
    • Db
    • D
    • Eb
    • E
    • F
    • F#
    • G
    • Ab
  • Adicionar à lista

    0 comentários

    Ver todos os comentários

    Conseguiu tocar?

    5 Tocaram 1 Ainda não

    Grave um vídeo tocando In Your Eyes e nos envie!

    00:00 / 00:00

    Cifra Club Pro

    Aproveite o Cifra Club com benefícios exclusivos e sem anúncios
    Cifra Club Pro
    Aproveite o Cifra Club com benefícios exclusivos e sem anúncios
    OK